Oops, an error
Loading. Please wait.

Xo tab

version 1
version 1

Whole song

  • This is a more basic version of the song. Great fo... Show more
122,890 views 993 this week
11 commentsread comments
1 2 3 4 5
x 104
add to favorites
×
Save as Personal and add changes to this tab that will be seen only by you. Learn more ›
×
You can save this tab as Personal to edit and correct it or add notes. All changes will be seen only by you. Learn more »
launch autoscroll
font size
0
reset
how to read this tab
guitar tuner
edit
Autoscroll
slow
fast
+/-
esc
set tempo
stop
-------------------------------------------------------------------------------
                             XO - The Eden Project
-------------------------------------------------------------------------------
Tabbed by: David English
E-mail:

Tuning:STANDARD

I Tried my best to get all of the little nuances he does in the song
so this tab should be pretty accurate.
Shout out to my friends Ryan and Nathan. Who love the Eden Project and have helped
fuel my love for music.


[VERSE: 1]

e|------6-----------5---------------6----------5--------------------------------|
B|-----------6-----------5--------------6----------5-5h6p5----------------------|
G|--------------------------------------------------------5---------------------|
D|--2/5---------1/3-------------2/5--------1/3----------------------------------|
A|---------5-----------3--------------5----------3------------------------------|
E|------------------------------------------------------------------------------|

e|-----------------------------------------------------------------------------|
B|----3--6---5----3--6-8---5-6----3---6---5h6----3---6---5---------------------|
G|-----------------------------------------------------------------------------|
D|-----------------------------------------------------------------------------|
A|--1----5---3--1----5-----3----1-----5---3----1-----5---3---------------------|
E|-----------------------------------------------------------------------------|

e|------6--------------------------6-------------------------------------------|
B|-----------6-----5------3-------------6-----5----3---------------------------|
G|-----------------------------------------------------------------------------|
D|--2/5-----------------------2/5----------------------------------------------|
A|---------5-----3-----1--------------5----3-----1-----------------------------|
E|-----------------------------------------------------------------------------|

e|------6------------------------------------------------------------------------|
B|-----------6h8-----5------3--1------------3---5--------------------------------|
G|--------------------------------3--3-------------------------------------------|
D|--2/5--------------------------------------------------------------------------|
A|---------5-----1/3-----1---------------1------3--------------------------------|
E|--------------------------------3--3-------------------------------------------|

Enter:
BASS

LEAD COUNTER MELODY
Altogether known as...THE DROP...or Chorus, whichever you prefer.
e|------6-----------5---------------6-------------5----------------------------|
B|-----------6-----------5--6------------6h8----------5-5/---------------------|
G|-----------------------------------------------------------------------------|
D|--2/5---------1/3-------------2/5------------3-------------------------------|
A|---------5-----------3--------------5-------------3----/---------------------|
E|-----------------------------------------------------------------------------|

e|------6-----------5---------------6-------------5------------------------------|
B|-----------6-----------5---------------6--------------5h6p5--------------------|
G|------------------------------------------------------------5------------------|
D|--2/5-----------3-------------2/5------------3---------------------------------|
A|---------5-----------3--------------5--------------3---------------------------|
E|-------------------------------------------------------------------------------|

e|-------------------------------------------------------------------------------|
B|----3--6---5----3--6-8---5--1---3----6---5-6----3-------5----------------------|
G|-------------------------------------------------------------------------------|
D|-------------------------------------------------------------------------------|
A|--1----5---3--1----5-----3--0-1------5---3----1-----5---3----------------------|
E|-------------------------------------------------------------------------------|

e|------6--------------------------6-------------------------------------------|
B|-----------6-----5------3-------------6-----5----3---------------------------|
G|-----------------------------------------------------------------------------|
D|--2/5-----------------------2/5----------------------------------------------|
A|---------5-----3-----1--------------5----3-----1-----------------------------|
E|-----------------------------------------------------------------------------|

e|------6-----------------------------------------------------------------------|
B|-----------6h8-----5------3--1------------3---5-------------------------------|
G|--------------------------------3--3------------------------------------------|
D|--2/5-------------------------------------------------------------------------|
A|---------5-----1/3-----1---------------1------3-------------------------------|
E|--------------------------------3--3------------------------------------------|
....I'm not singing for an XO...I'm singing cause its over
e|------6-------------5------------------6----------------------------------------|
B|-----------6-6-6--------5-5h6p5-------------6-6h8-8b10-8p6-8-8b10---------------|
G|--------------------------------5-----------------------------------------------|
D|--2/5-------------3----------------2/5------------------------------------------|
A|---------5------------3-------------------5-------------------------------------|
E|--------------------------------------------------------------------------------|

e|------6----------5---------------6-------------------------------------------|
B|-----------6-----------5-6----------6----5-----------------------------------|
G|-----------------------------------------------------------------------------|
D|--2/5----------3--------------5----------------------------------------------|
A|---------5-----------3--------------5----3-----------------------------------|
E|-----------------------------------------------------------------------------|
END


If you ever wanted to do a cool guitar part for performance or something,
Here's the LEAD COUNTER MELODY on Guitar
e|--------------------------13-12--------------------------------------------------------|
B|---13-15----------13-10---------10-----------------------------------------------------|
G|---------14----12--------------------12-14---------------------------------------------|
D|-------------------------------------------12------------------------------------------|
A|---------------------------------------------------------------------------------------|
E|---------------------------------------------------------------------------------------|


************************************

| /   slide up
| \   slide down
| h   hammer-on
| p   pull-off
| ~   vibrato
| +   harmonic
| x   Mute note
| b   Bend
| pb  Pre-bend
| br  Bend release
| pbr Pre-bend release
| brb Bend release bend

************************************

            
            
Suggest correction
Creating personal tab
Creating personal tab
You can edit any tab online and save it as your Personal.

You can edit, replace or remove any tab part or add personal notes – all changes will be seen only by you.

Personal tabs can be accessed anytime from any device, even offline.
Learn more »
comments
print report bad tab
11 comments total. Showing first comments.
0 reply
BlackDenimCap 62 Apr 23, 2015 08:44 AM

Nicely done!

+2 reply
aciebel 37 Apr 26, 2015 04:49 AM

Beautiful! Small thing I'm not sure about: in the third part of the counter melody, shouldn't it be a 10 instead of a 12 on the B string? Not that it really matters, though, the tab itself is perfect. :)

0 reply
milo.nicholls 11 May 15, 2015 04:53 AM

I concur. should be an a, not a b.

guest
You may want to rate the tab now too:
select rating
Wanna post a correction for this tab? Suggest correction