Oops, an error
Loading. Please wait.

Xo tab

version 2
version 2

Whole song

  • This is a more basic version of the song. Great fo... Show more
2,368 views 45 this week
no commentswrite comment
1 2 3 4 5
x 5
add to favorites
×
Save as Personal and add changes to this tab that will be seen only by you. Learn more ›
×
You can save this tab as Personal to edit and correct it or add notes. All changes will be seen only by you. Learn more »
launch autoscroll
font size
0
reset
how to read this tab
guitar tuner
edit
Autoscroll
slow
fast
+/-
esc
set tempo
stop
About this tab version
This is a more basic version of the song. Great for people that are just starting off and love The Eden Project/EDEN. Was this info helpful? Yes No
Okay, so this is my first time submitting something, but I thought I would do a
simplified version of this song, XO. If you're having trouble understanding this,
go to this YouTube link for the instrumental: youtube.com/watch?v=Guyv6Y7xJgk
By the way, the hammer-ons and slide ups are optional, you don't have to do them if you don't
want to. I don't know much about music so please correct me if I get the verses
and chorus in the wrong places. Thank you!

            [Verse 1/Intro](0:04)
            She's in love with the concept...
e|---------------------------------------------------------------------------|
B|-------11-------------------------------11---------------------------------|
G|-------------10--------14----9----------------10--------14----9------------|
D|---------------------------------------------------------------------------|
A|--8/10-----------------------------8/10------------------------------------|
E|----------10--------13-----8---------------10--------13-----8--------------|

e|---------------------------------------------------------------------------|
B|---------------------------------------------------------------------------|
G|----7-----10--9-------7-----10-12--9-10-----7-----10--9-10-------7-----10--|
D|---------------------------------------------------------------------------|
A|---------------------------------------------------------------------------|
E|--6-------10--8-----6-------10-----8------6-------10--8--------6-------10--|

          [Chorus] (0:38)
          I don't think I love you no more...
e|------|---------------------------|----------------------------------------|
B|------|------11-------------------|------11----10h12-----------------------|
G|--9---|------------10-------9---7-|------------------------9---7-5--3-3----|
D|------|---------------------------|----------------------------------------|
A|------|-3/10----------------------|-3/10-----------------------------------|
E|--8---|---------10--------8---6---|---------10-----------8---6---4--2-2----|
               (Repeat Once)

         I'm just singing cause it's over...
e|-----------|--------------------------------------------------------------||
B|-----------|------11------------------------------11----------------------||
G|----7--9---|------------10--------14----9-9-------------10--------14----9-||
D|-----------|--------------------------------------------------------------||
A|-----------|-8/10----------------------------8/10-------------------------||
E|--6----8---|---------10--------13-----8--------------10--------13-----8---||
                               (Played in Background)

            [Verse 2] (1:14)
            Came and went like the summertime...
e|---------------------------------------------------------------------------|
B|-------11-------------------------------11---------------------------------|
G|-------------10--------14----9----------------10--------14----9------------|
D|---------------------------------------------------------------------------|
A|--8/10-----------------------------8/10------------------------------------|
E|----------10--------13-----8---------------10--------13-----8--------------|

e|---------------------------------------------------------------------------|
B|---------------------------------------------------------------------------|
G|----7-----10--9-------7-----10-12--9-10-----7-----10--9-10-------7-----10--|
D|---------------------------------------------------------------------------|
A|---------------------------------------------------------------------------|
E|--6-------10--8-----6-------10-----8------6-------10--8--------6-------10--|

          [Chorus] (1:48)
          I don't think I love you no more...
e|------|---------------------------|----------------------------------------|
B|------|------11-------------------|------11----10h12-----------------------|
G|--9---|------------10-------9---7-|------------------------9---7-5--3-3----|
D|------|---------------------------|----------------------------------------|
A|------|-3/10----------------------|-3/10-----------------------------------|
E|--8---|---------10--------8---6---|---------10-----------8---6---4--2-2----|
               (Repeat Once)

         I'm just singing cause it's over...
e|-----------|---------------------------------------------------------------|
B|-----------|------11-------------------------------------11----------------|
G|----7--9---|------------10-10-10--------14----9----------------10----------|
D|-----------|---------------------------------------------------------------|
A|-----------|-8/10-----------------------------------8/10-------------------|
E|--6----8---|---------10--------------13-----8---------------10-------------|
                                 (Played in Background)

                              [Outro] (2:24)
                              Just singing...
e|------------------|--------------------------------------------------------|
B|------------------|------11---------------------------------11-------------|
G|-----14----9-9----|------------10--------14----9-9------------------9------|
D|------------------|--------------------------------------------------------|
A|------------------|-8/10-------------------------------8/10----------------|
E|--13-----8--------|---------10--------13-----8-----------------10----------|
(Played in Background)


****************

| /   slide up
| h   hammer-on

****************

Reminder: This is just a basic version for beginners
I hope this helps!

-----------------------------------------------

Lyrics:

[Verse 1/Intro] (0:04)

She's in love with the concept
As if we're all just how she imagined
Cos we're in love, I just don't know it yet
Well tell me how am I supposed to see the magic

Cos I don't believe in it no more
But I won't tell her
Cos I always imagined
It's easier if she thinks she won
So I'mma let her

[Chorus] (0:38)

And she said
I don't think I love you no more
You never seem to call me lately
Girl, I don't think you know me at all
Cos I never thought I'd have to say this
No, I don't love you
And I never did look at us
Burning down in flames for kicks
But just know
I'm not singing for your XO
I'm just singing cos it's over

[Verse 2] (1:14)

Came and went like the summertime
Was that a sunset or sunrise?
Looking back like where'd the time go
So much for trying to keep this moving slow

Cos I don't believe in her no more
But I remember
How we talked shit like we knew what we wanted
I still remember what she said

[Chorus] (1:48)

I don't think I love you no more
You never seem to call me lately
Girl, I don't think you know me at all
Cos I never thought I'd have to say this
But I'm no liar and I never hid anything
You should've seen it coming to this
Just know
I'm not singing for an ex though
I'm just singing cos it's over

[Outro] (2:24)
Just singing
Just singing, yeah
Just singing cause it's over

-----------------------------------------------

            
            
Suggest correction
Creating personal tab
Creating personal tab
You can edit any tab online and save it as your Personal.

You can edit, replace or remove any tab part or add personal notes – all changes will be seen only by you.

Personal tabs can be accessed anytime from any device, even offline.
Learn more »
comments
print report bad tab
guest
You may want to rate the tab now too:
select rating
Wanna post a correction for this tab? Suggest correction