Oops, an error
Loading. Please wait.

Frankenstein tab

version 4
version 4

Whole song

Interactive

240 views 1 this week
no commentswrite comment
1 2 3 4 5
3 more votes to show rating
add to favorites
×
Save as Personal and add changes to this tab that will be seen only by you. Learn more ›
×
You can save this tab as Personal to edit and correct it or add notes. All changes will be seen only by you. Learn more »
launch autoscroll
font size
0
reset
how to read this tab
guitar tuner
backing track
0:00
0:00
edit
Autoscroll
slow
fast
+/-
esc
set tempo
stop
Author
Difficulty
FRANKENSTEIN

As recorded by The Edgar Winter Group
(From the 1972 Album THEY ONLY COME OUT AT NIGHT)

Words and Music by Edgar Winter

Transcribed by Slowhand


Gtr I (E A D G B E) - 'Electric Guitar  w/ distortion'
Gtr II (E A D G B E) - 'Electric Guitar w/ distortion'
Gtr III (E A D G B E) - 'Synthesizer'
Gtr IV (E A D G B E) - 'Clean Electric Guitar '
Gtr V (E A D G B E) - 'Saxophone'
Gtr VI (E A D G B E) - 'Synthesizer'


  Q=96
             G5          F5G5  Bb5  G5          F5G5N.C.
 4/4 
  Gtr I  (El. Gtr. w/ dist.)                      Gtr III (Synth. arr. for Gtr.)
  W          S S S S S E S e e Q    S S S S +S  S S S S S S S S S S S
|----------|----------------------|-----------------------------------|
|----------|----------------------|-----------------------------------|
|----------|-------------------3--|-----------------------------------|
|----------|-5-5---5---5-3-5-5-3--|-5-5---5-(5)-3-5---------3-5p3-5---|
|----------|-5-5---5---5-3-5-5----|-5-5---5-(5)-3-5---3-4h5-----------|
|----------|----------------------|-----------------6---------------3-|


  G5          F5G5  BbC5Bb5 G5          F5G5N.C.
  Gtr I
  S S S S S E S e e S S E   S S S S +S  S E Q   Q
|-------------------------|-------------------------||
|-------------------------|-------------------------||
|-------------------3-5p3-|-------------------------||
|-5-5---5---5-3-5-5-3-5p3-|-5-5---5-(5)-3-5-3s=21\--||
|-5-5---5---5-3-5-5-------|-5-5---5-(5)-3-5---------||
|-------------------------|-------------------------||
|
| Gtr II (El. Gtr. w/ dist.)
| W                         W
|-------------------------|-------------------------||
|-------------------------|-------------------------||
|-------------------------|-------------------------||
|-------------------------|-------------------------||
|-------------------------|-------------------------||
|-------------------------|-------------------------||


  N.C.
        ~~~~~~
  S S S S +E  S S S S S S +E  S S
|-----------------------------------|
|-----------------------------------|
|-------------3---5-3---3-(3)-5-3---|
|-2-3-4-5-(5)---5-----5-------------|
|-----------------------------------|
|-----------------------------------|
|
|       ~~~~~~          ~~~~~~
| S S S S +E  S S S S S S +E  S S
|-----------------------------------|
|-----------------------------------|
|-----------------------------------|
|-----------------------------------|
|-------------1---3-1---1-(1)-3-1---|
|-0-1-2-3-(3)---3-----3-------------|


                  ~~~~~~
      |---3---|
  E   S   +S  S E E +E  E E +E
|--------------------------------|
|--------------------------------|
|-5b7-5b7r(5)p3---3-(3)----------|
|---------------5-------5-5-(5)\-|
|--------------------------------|
|--------------------------------|
|
|                 ~~~~~~
|     |---3---|
| E   S   +S  S E E +E  E E  E
|--------------------------------|
|--------------------------------|
|--------------------------------|
|--------------------------------|
|-3b5-3b5r(3)p1---1-(1)----------|
|---------------3-------3-4--5---|


  Gtr III (Synth. arr. for Gtr.)
                                                 ~~~~~~~~~~~~
             |---3---|                   |--3--|
   Q   E   E S   +S  S E E S S    E    E S +S  S E +Q   +Q
|-/6---------------------------|-------------------------------|
|------6b8-6-------------------|-------6-----------------------|
|------------5b7r(5)p3---3-5p3-|--5b7====5r(5)p3---------------|
|----------------------5-------|-----------------5-(5)--(5)\---|
|------------------------------|-------------------------------|
|------------------------------|-------------------------------|
|
|  E E E   E E         E E E      E    E E       E +Q.       E
|------------------------------|-------------------------------|
|------------------------------|-------------------------------|
|------------------------------|-------------------------------|
|------------------------------|-------------------------------|
|------4---5-6---------6-3-4---|-/x\---------------------------|
|--6-6-------------------------|-------1-2-------3-(3)---------|


  Gtr I
         ~~~~~~~              ~~~~~~
  S S S  S  +E  S  S  S  S  S S +E   S S
|----------------------------------------|
|----------------------------------------|
|---------------8----10--8----8-(8)-10-8-|
|-7-8-9-10-(10)---10-------10------------|
|----------------------------------------|
|----------------------------------------|
|
| Gtr II
| E   E      E  E     S  S  E    E   E
|----------------------------------------|
|-8----------8-------10-10------10-------|
|-8----------8-------10-10------10-------|
|----------------------------------------|
|----------------------------------------|
|----------------------------------------|


                         ~~~~~~~~~~~~~~~~
         |----3----|
   E     S     +S  S  E  E  +E   Q   +E
|----------------------------------------|
|----------------------------------------|
|-10b12-10b12r(10)p8-----8--(8)----------|
|--------------------10---------10--(10)-|
|----------------------------------------|
|----------------------------------------|
|
|  E     E            E  E  +Q.      +E
|----------------------------------------|
|-11----11--------------10-(10)-----(10)-|
|-12----12--------------10-(10)-----(10)-|
|----------------------------------------|
|----------------------------------------|
|----------------------------------------|


  Gtr III
            ~~~~~~~                ~~~~~~~
   S  S  S  S  +E   S  S  S  S  S  S  +E   S  S
|-----------------------------------------------|
|-----------------------------------------------|
|---------------------15-17-15----15-(15)-17-15-|
|-14-15-16-17-(17)-17----------17---------------|
|-----------------------------------------------|
|-----------------------------------------------|
|
| Gtr I
|           ~~~~~~~                ~~~~~~~
|  S  S  S  S  +E   S  S  S  S  S  S  +E   S  S
|-----------------------------------------------|
|-----------------------------------------------|
|-----------------------------------------------|
|---------------------15-17-15----15-(15)-17-15-|
|-14-15-16-17-(17)-17----------17---------------|
|-----------------------------------------------|
|
| Gtr II
|  E     E      E   E     S  S  E      E   E
|--3------------3---------5--5---------5--------|
|--3------------3---------5--5---------5--------|
|-----------------------------------------------|
|-----------------------------------------------|
|-----------------------------------------------|
|-----------------------------------------------|


                          ~~~~~~~~~~
         |----3-----|
   E     S     +S   S  E  E  +E   Q  E
|--------------------------------------||
|--------------------------------------||
|-17b19-17b19r(17)p15----15-(15)-------||
|---------------------17---------17----||
|--------------------------------------||
|--------------------------------------||
|
|                         ~~~~~~~~~~
|        |----3-----|
|  E     S      S   S  E  E  +E   Q  E
|--------------------------------------||
|--------------------------------------||
|--------------------------------------||
|-17b19-17b19r=17p=15----15-(15)-------||
|---------------------17---------17----||
|--------------------------------------||
|
|  E     E             E  E  +Q.     E
|--6-----6----------------3--(3)-------||
|--6-----6----------------3--(3)-------||
|--------------------------------------||
|--------------------------------------||
|--------------------------------------||
|--------------------------------------||


  Gm/Bb
  Gtrs I, III
                                     |---3---|
   E    E  E     +S  S  S      +S   +S   +S  S  E     +S  S
|-----------------------------------------------------------|
|-10b11---10b11r(10)p8-10b11==(10)-(10)r(10)p8-10b11r(10)p8-|
|-----------------------------------------------------------|
|-----------------------------------------------------------|
|-----------------------------------------------------------|
|-----------------------------------------------------------|
|
|  E    E  E      E     S       S    E          E      E
|--3-------3------------3-------3---------------3-----------|
|--3-------3------------3-------3---------------3-----------|
|--3-------3------------3-------3---------------3-----------|
|-----------------------------------------------------------|
|-----------------------------------------------------------|
|-----------------------------------------------------------|


  F5                         N.C.
                             Gtr I
                 ~~~~~~
         |--3--|
   E  E  S  S  S E +Q.   E    E    E  E     +S  S  S     S    E  E     +S  S
|--------------------------|-------------------------------------------------|
|-10-11-10h11p10-8-(8)-----|-------------------------------------------------|
|--------------------------|-10b12---10b12r(10)p7-10b12-10b12---10b12r(10)p7-|
|--------------------------|-------------------------------------------------|
|--------------------------|-------------------------------------------------|
|--------------------------|-------------------------------------------------|
|
|  E  E  e       E +Q.   E    E    E  E      E     S     S    E  E      E
|--------------------------|-------------------------------------------------|
|--------------------------|-11------11-----------11----11------11-----------|
|--5--5--5-------5-(5)-----|-13b15---13b15--------13b15-13b15---13b15--------|
|--3--3--3-------3-(3)-----|-------------------------------------------------|
|--------------------------|-------------------------------------------------|
|--------------------------|-------------------------------------------------|


                                     G5          F5G5  Bb5
         |--3--|
   E  E  S  S  S  E  +Q.     +E      S S S S S E S e e Q
|---------------------------------||----------------------|
|---------------------------------||----------------------|
|-10-12-10h12p10--9--(9)-----(9)\-||-------------------3--|
|---------------------------------||-5-5---5---5-3-5-5-3--|
|---------------------------------||-5-5---5---5-3-5-5----|
|---------------------------------||----------------------|
|
|                 ~~~~~~~
|        |--3--|
|  E  E  S  S  S  E  +Q    E  E      W
|---------------------------------||----------------------|
|-10-11-10h11p10------------------||----------------------|
|----------------12-(12)--12------||----------------------|
|---------------------------------||----------------------|
|---------------------------------||----------------------|
|-----------------------------x\--||----------------------|


  G5          F5G5N.C.
                  Gtr III
  S S S S +S  S S S S S S S S S S S
|-------------------------------------|
|-------------------------------------|
|-----------------5p3-----------------|
|-5-5---5-(5)-3-5-----5-3-2-----------|
|-5-5---5-(5)-3-5-----------5p3-------|
|-------------------------------6-3---|
|
| W
|-------------------------------------|
|-------------------------------------|
|-------------------------------------|
|-------------------------------------|
|-------------------------------------|
|-------------------------------------|


  G5          F5G5  BbC5Bb5 G5          F5G5
  Gtr I                                          
  S S S S S E S e e S S E   S S S S +S  S E H
|-------------------------|----------------------||
|-------------------------|----------------------||
|-------------------3-5p3-|----------------------||
|-5-5---5---5-3-5-5-3-5p3-|-5-5---5-(5)-3-5------||
|-5-5---5---5-3-5-5-------|-5-5---5-(5)-3-5------||
|-------------------------|----------------------||
|
|                                                Gt
| Q       Q     H           W
|-------------------------|----------------------||
|-------------------------|----------------------||
|-------------------------|----------------------||
|-------------------------|----------------------||
|-------------------------|----------------------||
|-3-----------------------|----------------------||


  Bb          C            Bb C
 Gtr IV (Clean El. Gtr.)
   E  S S E S  S S  S S  S  S  S  S S
|---------------------------------------|
|--3--x-x-3-x--5----5----x--3--5--x-x---|
|--3--x-x-3-x--5----5----x--3--5--x-x---|
|---------------------------------------|
|---------------------------------------|
|---------------------------------------|
|
|Gtr III
|  Q.       S  S S  S S  S  S  S  S S
|-10--------8-10-8----8-----------------|
|------------------11---11-10-11-10-8---|
|---------------------------------------|
|---------------------------------------|
|---------------------------------------|
|---------------------------------------|


  Bb         C             BbC Bb                     C           BbC
  E    S S S S S S   S S S S S S S S   E   S S  E   S  S  S S S S S S S S
|------------------------------------|------------------------------------|
|-3----x-x-3-5---5b6---5---3-5-3-x-x-|-3---x-x--3---x--5----5---x-3-5-x-x-|
|-3----x-x-3-5---5b6---5---3-5-3-x-x-|-3---x-x--3---x--5----5---x-3-5-x-x-|
|------------------------------------|------------------------------------|
|------------------------------------|------------------------------------|
|------------------------------------|------------------------------------|
|
| S  S E   S S S S   S S S S S S S S   S S S S  S S S  S  S S S S S S S S
|------------------------------------|------------------------------------|
|-8-10-8---6-8-6-5---6-5---5---------|------------------------------------|
|------------------------7---7-5-7-5-|---5--------------------------------|
|------------------------------------|-8---7-8----8-----------------------|
|------------------------------------|---------10---8-10----8---5---------|
|------------------------------------|-------------------10---8---6-8-5-6-|


  Bb      C             BbC Bb                    C         BbC
  E S S S S S S   S S S S S S S S   E   S S E   S S S S S S S S S S
|---------------------------------|----------------------------------|
|-3-x-x-3-5---5b6---5---3-5-3-x-x-|-3---x-x-3---x-5---5---x-3-5-x-x--|
|-3-x-x-3-5---5b6---5---3-5-3-x-x-|-3---x-x-3---x-5---5---x-3-5-x-x--|
|---------------------------------|----------------------------------|
|---------------------------------|----------------------------------|
|---------------------------------|----------------------------------|
|
| E S S S S S S   S S S S S S S S   S S S S S S S S S S S S S S S S
|---------------------------------|-----------------------3-3-5-5-6--|
|---------------------------------|---------------5-5-6-6------------|
|---------------------------------|-------5-5-7-7--------------------|
|-------------------------------5-|-7-8-8----------------------------|
|---------1-3-4-----5-7-7-8-7-8---|----------------------------------|
|-3-3-1-3---------6---------------|----------------------------------|


  Bb          C                 BbC Bb
  E   S   S S S   S   S   S S S S S S S  S
|------------------------------------------|
|-3---x---x-3-5-------5b6---5---3-5-3-x--x-|
|-3---x---x-3-5-------5b6---5---3-5-3-x--x-|
|------------------------------------------|
|------------------------------------------|
|------------------------------------------|
|
| |--3--|   |---3---|
| E E   E   E   E   E     S S S S S S S  S
|-6-6---6---6---6---6-----8-6-8-6-8-6-8-10-|
|------------------------------------------|
|------------------------------------------|
|------------------------------------------|
|------------------------------------------|
|------------------------------------------|


                      C              Bb C
   E    S  S  E     S  S  S  S  S  S  S  S  S  S
|------------------------------------------------|
|--3----x--x--3-----x--5-----5-----x--3--5--x--x-|
|--3----x--x--3-----x--5-----5-----x--3--5--x--x-|
|------------------------------------------------|
|------------------------------------------------|
|------------------------------------------------|
|
|  S S  S  S  S  S  S  S  S  S  S  S  S  S  S  S
|-10-8-10-11-12-10-12-13-12-10----10-------------|
|------------------------------13----13-11-13----|
|---------------------------------------------12-|
|------------------------------------------------|
|------------------------------------------------|
|------------------------------------------------|


  Bb              C                    Bb C  Bb
   E     S S  S   S    S  S    S  S  S  S  e e
|----------------------------------------------|
|--3-----x-x--3---5-------5b6-----5-----3--5-3-|
|--3-----x-x--3---5-------5b6-----5-----3--5-3-|
|----------------------------------------------|
|----------------------------------------------|
|----------------------------------------------|
|
|             |--3--|
|  S  S  S S  S S   S  S  S    S  S  S  S  Q
|----------------------------------------------|
|----------------------------------------------|
|-10-12-10-9-10-9---9--------------------------|
|---------------------12-12---11-10----10-10---|
|-----------------------------------13---------|
|----------------------------------------------|


  Dm/F              C       Dm            C  Bb
   S  S  S  S  E  S S  S  S  e       S     S  E
|-10-10-10-10-10--x--------------------------------|
|-10-10-10-10-10--x-5-----x--6-------6-----5--3----|
|-10-10-10-10-10--x-5-----x--7-------7-----5--3----|
|--------------------------------------------------|
|--------------------------------------------------|
|--------------------------------------------------|
|
|                               |---3---|
|  Q           E  E    S  S  S  S  S    S  S  S  S
|-17----------17-17---15----15---------------------|
|------------------------18----18p17h==18-18-17-17-|
|--------------------------------------------------|
|--------------------------------------------------|
|--------------------------------------------------|
|--------------------------------------------------|


  Dm/F                 C          Dm    C  Bb
   S  S  S  S  E     S  S   S   S  e     E E
|-10-10-10-10-10-----x-----------------------|
|-10-10-10-10-10-----x--5-------x--6-----5-3-|
|-10-10-10-10-10-----x--5-------x--7-----5-3-|
|--------------------------------------------|
|--------------------------------------------|
|--------------------------------------------|
|
|  S  S  S  S  S  S  S  S  +S   S  S  S  Q
|--------------------------------------------|
|-15-17-15-17-15-----------------------------|
|----------------15-17---------14-15-14------|
|----------------------17-(17)----------17---|
|--------------------------------------------|
|--------------------------------------------|


  Dm/F                   C         Dm      C  Bb
    S   S  S  S  E     S S   S   S e     S  S  E
|--10--10-10-10-10-----x----------------------------|
|--10--10-10-10-10-----x-5-------x-6-----6--5--3----|
|--10--10-10-10-10-----x-5-------x-7-----7--5--3----|
|---------------------------------------------------|
|---------------------------------------------------|
|---------------------------------------------------|
|
|  +S   S  E     S  S  E    +S   E    S  S  S  S  S
|---------20----20-17-----------17------17----------|
|---------------------18---(18)------20----20-18-20-|
|------17-------------------------------------------|
|-(17)----------------------------------------------|
|---------------------------------------------------|
|---------------------------------------------------|


  Dm/F                 C        Dm    C     Bb
                                                   Gt
   S  S  S  S  E     S  S  S  S  e     E     E
|-10-10-10-10-10-----x-----------------------------||
|-10-10-10-10-10-----x--5-----x--6-----5-----3-----||
|-10-10-10-10-10-----x--5-----x--7-----5-----3-----||
|--------------------------------------------------||
|--------------------------------------------------||
|--------------------------------------------------||
|
|  S  S  S  S  S  S  S  S  S  S  S  S  S  S  S  S
|--------------------------------------------------||
|-18-15----15--------------------------------------||
|-------17----15-17----15--------------------------||
|-------------------19----17-19-15-17-14-15--------||
|-------------------------------------------17-15\-||
|--------------------------------------------------||


  Bb           C
 r I
  E  S S E   S S  S  S S S S S E
|--------------------------------|
|-3----x-3-----5-----5---x-5-5---|
|-3----x-3-----5-----5---x-5-5---|
|--------------------------------|
|--------------------------------|
|--------------------------------|
|
| E.   S S S S S +S  S E   E   E
|--------------------------------|
|--------------------------------|
|--------------------------------|
|--------------------------------|
|----------1-2-3-(3)-3-----------|
|-3----1-3-------------0---1---2-|


  Dm           Bb    C       Bb                  C
  E  S S E   S S  S  S S S S S E   E   S S E   S S  S  S S S S S E
|--------------------------------|---------------------------------|
|-6----6-6-----3-----5---x-5-3---|-3-----3-3-----5-----5---x-5-5---|
|-7----7-7-----3-----5---x-5-3---|-3-----3-3-----5-----5---x-5-5---|
|--------------------------------|---------------------------------|
|--------------------------------|---------------------------------|
|--------------------------------|---------------------------------|
|
| E.   S S S S S +S  S E   E   E   S S E   S S S S +S  S E   E   E
|--------------------------------|---------------------------------|
|--------------------------------|---------------------------------|
|--------------------------------|---------------------------------|
|----------------------2---3---4-|-5-------------------------------|
|----------1-2-3-(3)-3-----------|---5-------1-2-3-(3)-3-----------|
|-3----1-3-----------------------|-----3---3-------------0---1---2-|


  Dm           Bb    C       Bb
  E  S S E   S S  S  S S S S S E
|---------------------------------||
|-6----6-6-----3-----5---x-5-3----||
|-7----7-7-----3-----5---x-5-3----||
|---------------------------------||
|---------------------------------||
|---------------------------------||
|
| E.   S S S S S +S  S E   E   E
|---------------------------------||
|---------------------------------||
|---------------------------------||
|----------------------2---3---4--||
|----------1-2-3-(3)-3------------||
|-3----3-3------------------------||


  N.C.
  Gtr V (Sax. arr. for Gtr.)
                       ~~~~~~~                        ~~~~~~~
  S  S S S  S S  S S S E. +E  E   S  S  S S  S  S  S  S  +Q.   E
|-------------------------------|------------------8-------------|
|-------------8-10-8------------|---------8-10-11----11-(11)-----|
|------7-9-10----------9--(9)---|-7--9-10------------------------|
|-8-10--------------------------|--------------------------------|
|-------------------------------|--------------------------------|
|-------------------------------|--------------------------------|
|
| Gtr IV
|                      ~~~~~~~                        ~~~~~~~
| S  S S S  S S  S S S E. +E  E   S  S  S S  S  S  S  S  +H
|-------------------------------|--------------------------------|
|-------------5--6-5------------|---------------8-10--8--(8)-----|
|--------5--7----------5--(5)---|-------7-9-10-------------------|
|-5--7-8------------------------|-8-10---------------------------|
|-------------------------------|--------------------------------|
|-------------------------------|--------------------------------|
|
| Gtr I                           Gtr II
|                      ~~~~~~~
| S  S S S  S S  S S S E. +E  E   S  S  S S  S  S  S  S  +Q.   E
|-------------------------------|--------------------------------|
|-------------------------------|---------------3--5--3--(3)-----|
|-----------2-3--5-3------------|-------2-3--5-------------------|
|-5--2-3-5-------------5--(5)---|-3--5---------------------------|
|-------------------------------|--------------------------------|
|-------------------------------|--------------------------------|


   S  S  S  S  S  S  S  S S  E.  +E  E
|----------------10-12-10--------------|
|-------10-11-13------------11--(11)---|
|-10-12--------------------------------|
|--------------------------------------|
|--------------------------------------|
|--------------------------------------|
|
|  S  S  S  S  S  S  S  S S  E.  +E  E
|--------------------------------------|
|-------------10-11-13-11--------------|
|-----9-10-12---------------12--(12)---|
|-12-----------------------------------|
|--------------------------------------|
|--------------------------------------|
|
|                            ~~~~~~~~
|  S  S  S  S  S  S  S  S S  E.  +E  E
|--------------------------------------|
|--------------5--6--8--6--------------|
|--------5--7----------------7---(7)---|
|--7--8--------------------------------|
|--------------------------------------|
|--------------------------------------|


                        ~~~~~~~
   S  S  S  S  S  S  S  S  +Q.   E   S E   S S E   S S S S S S S S S
|----------10-12-13-15-13-(13)-----|-------------------------------3--|
|-10-11-13-------------------------|-----------------3-2-3-5-6-5-6----|
|----------------------------------|-------2-3-----5------------------|
|----------------------------------|-5--------------------------------|
|----------------------------------|----------------------------------|
|----------------------------------|----------------------------------|
|
|                       ~~~~~~~
|  S  S  S  S  S  S  S  S  +Q.   E   S S S S S S S S S S S S S S S S
|----------------------------------|----------------------------------|
|-------------13-15-17-15-(15)-----|-------------------------------5--|
|----12-14-15----------------------|-----------------------5-7-6-7----|
|-15-------------------------------|---------5-4-5-7-8-7-8------------|
|----------------------------------|-7-6-7-8--------------------------|
|----------------------------------|----------------------------------|
|
|                       ~~~~~~~
|  S  S  S  S  S  S  S  S  +Q.   E   S S S S S S S S S S S S S S S S
|-----------------5--6--5--(5)-----|----------------------------------|
|--------5--6--8-------------------|----------------------------------|
|--5--7----------------------------|----------------------------------|
|----------------------------------|---------------2-3-2-3-5-7-6-7-8--|
|----------------------------------|-1-0-1-3-5-4-5--------------------|
|----------------------------------|----------------------------------|


                      ~
   E S S S  S S S S S Q  E   S S S S  S S  S  S  S  S  S  S  S  S  S  S
|--------------------------|----------------------------------------------|
|--5--------3--------------|-----6------8-------10-------11-------13------|
|----5-4-5----3-------3----|-5s7---7s=9----9s10----10s12----12s14----14s==|
|---------------5---5------|----------------------------------------------|
|--------------------------|----------------------------------------------|
|--------------------------|----------------------------------------------|
|
|                     ~
|  E S S S  S S S S S Q  E   S S S S  S S  S  S  S  S  S  S  S  S  S  S
|--------------------------|----------------------------------------------|
|--------------------------|----------------------------------------------|
|--5-----------------------|-----7------9-------10-------12-------14------|
|----7-6-7--8-5-------5----|-7s8---8s10---10s12----12s14----14s15----15s==|
|---------------7---7------|----------------------------------------------|
|--------------------------|----------------------------------------------|
|
|                     ~
|  E S S E.     S S S Q  E   S S S S  S S  S  S  S  S  S  S  S  S  S  S
|--------------------------|----------------------------------------------|
|--------------------------|----------------------------------------------|
|--------------------------|-----2------4--------5--------7--------9------|
|-/5-----------------------|-2s3---3s=5----5s=7-----7s=9-----9s10----10s==|
|----7-6-7\-----5-----5----|----------------------------------------------|
|-----------------6-6------|----------------------------------------------|


                        ~~~~~~~~~~~~
   S  S  S  S  S  S  S  S      +Q.     E
|-------------------17-18b20==(18)r-------|
|----15-------15-18-----------------------|
|-15----15-17-----------------------------|
|-----------------------------------------|
|-----------------------------------------|
|-----------------------------------------|
|
|                       ~~~~~~~~~~~~
|  S  S  S  S  S  S  S  S      +Q.     E
|-----------------------------------------|
|----------------15-18-20b22==(20)r-------|
|----15----14-15--------------------------|
|-17----17--------------------------------|
|-----------------------------------------|
|-----------------------------------------|
|
|                       ~~~~~~~~~~~~
|  S  S  S  S  S  S  S  S      +Q.     E
|-----------------------------------------|
|----------------10-13-15b17==(15)r-------|
|----10-----9S10--------------------------|
|-12----12----------------------------!x\-|
|-------------------------------------!x\-|
|-------------------------------------!x\-|


    Dm/G
    Gtr I
     S S e  E  S S S S S S S S S S     e  S S S S S S   S  S S S +E  e
||---------------------------------|------------------------------------||
||o--------------------------------|-----------------------3---6-(6)-8-o||
||---------------------------------|----------3-----5---3----5----------||
||-------------------------------3-|------5-3---5-----------------------||
||o----------------1---3-1---5-3---|---5-------------------------------o||
||---1-3-3--3--1-3---3-------------|------------------------------------||
|
|   Gtr VI (Synth. arr. for Gtr.)
|    E   E  H.                        +H               +Q.           E
||---------------------------------|------------------------------------||
||o-18-----18----------------------|-(18)-------------(18)-------------o||
||--19-----19----------------------|-(19)-------------(19)--------------||
||--17-----17----------------------|-(17)-------------(17)--------------||
||o--------------------------------|-----------------------------------o||
||---------------------------------|------------------------------------||
|
|    W                                 W
||---------------------------------|------------------------------------||
||o--------------------------------|-----------------------------------o||
||---------------------------------|------------------------------------||
||---------------------------------|------------------------------------||
||o--------------------------------|-----------------------------------o||
||---------------------------------|------------------------------------||


    N.C.
    ~~
    E. S S E S H      E. S S E     S H
||------------------|----------------------||
||o-----------------|---------------------o||
||------------------|--------3b3.5---------||
||--5--3-5----------|-5--3-5---------------||
||o-----------------|---------------------o||
||---------3--------|----------------------||
|
|   E. S S E S H      E. S S E     S H
||--3----3----------|-3----3-6-------------||
||o-3--6-3-6--------|-3--6-3-6------------o||
||-----5---5--------|----5-----------------||
||------------------|----------------------||
||o-----------------|---------------------o||
||------------------|----------------------||


  Gm/Bb        Am/C            Bb/D          C/E
  Gtrs I, II
        ~~~~          ~~~~            ~~~~    ~~~~~~~~~~~~
  E    +Q    E E     +Q    E   E     +Q    E  E      +Q    E
|-3----(3)-----5-----(5)-----|-6-----(6)------8------(8)-----|
|-6b8==(6)r----8b10==(8)r----|-9b11==(9)r----11b13==(11)r----|
|----------------------------|-------------------------------|
|----------------------------|-------------------------------|
|----------------------------|-------------------------------|
|----------------------------|-------------------------------|
|
| H            H               H              H
|-3------------5-------------|-6--------------8--------------|
|-3------------5-------------|-6--------------8--------------|
|-3------------5-------------|-7--------------9--------------|
|----------------------------|-------------------------------|
|----------------------------|-------------------------------|
|----------------------------|-------------------------------|


  Bb/F            C/G               Bb                 C
           ~~~~~   ~~~~~~~~~~~~      ~~~~~~~~~~~~~~~~~     ~~~~~~~~~~~~~
   E      +Q    E  E      +Q    E    S      +E.  +Q     E  Q       +E
|-10-----(10)-----12-----(12)-----|-13-----(13)-(13)------15------(15)---||
|-13b15==(13)r----15b17==(15)r----|-16b18==(16)-(16)r-----18b20===(18)r--||
|---------------------------------|--------------------------------------||
|---------------------------------|--------------------------------------||
|---------------------------------|--------------------------------------||
|---------------------------------|--------------------------------------||
|
|  H               H                 H                  H
|-10--------------12--------------|-13-----------------15----------------||
|-11--------------13--------------|-15-----------------17----------------||
|-10--------------12--------------|-15-----------------17----------------||
|---------------------------------|--------------------------------------||
|---------------------------------|--------------------------------------||
|---------------------------------|--------------------------------------||


                                    Double time Q=161
  Bb/D                   N.C.
                                                   2/4
   E      +E   Q  H      Wx3          Wx11          W
|-18-----(18)----------|------------|-------------|------||
|-21b23==(21)r---------|------------|-------------|------||
|----------------------|------------|-------------|------||
|----------------------|------------|-------------|------||
|----------------------|------------|-------------|------||
|----------------------|------------|-------------|------||
|
|  Q           Q  H      Wx3          Wx11          W
|-18-------------------|------------|-------------|------||
|-18-------------------|------------|-------------|------||
|-19-------------------|------------|-------------|------||
|----------------------|------------|-------------|------||
|----------------------|------------|-------------|------||
|----------------------|------------|-------------|------||


    A tempo Q=129
    N.C.
   12/8
    Gtrs I, II
    H.      Q.   E E E   H.      Q.   E E E
||---------------------|---------------------||-|
||o--------------------|--------------------o||-|
||---------------------|---------------------||-|
||---------------------|---------------------||-|
||o--------------------|--------------------o||-|
||---------------3-3-3-|--------------3-3-3--||-|


    H.      Q.   E E E       H.      Q.   E E E     3x
||-------------------------|------------------------||
||o------------------------|-----------------------o||
||-------------------------|------------------------||
||-------------------------|------------------------||
||o------------------1b1.5-|-----------------------o||
||---------------3-3-------|--------------3-3-1-----||


                          Q=96
                             N.C.
                            4/4
                             ~~~~~~~~~~~~~~~~~~~~~~~~~~~~
  H.      Q.   E E E         W          +W           +W
|-------------------------||----------|------------|--------|
|-------------------------||----------|------------|--------|
|-------------------------||----------|------------|--------|
|-------------------------||----------|------------|--------|
|------------------1b1.5/-||----------|------------|--------|
|--------------3-3--------||-3--------|-(3)--------|-(3)----|


              7/8       2/4    4/4
  Wx5          W         W      Wx6
|------------|---------|------|--------||
|------------|---------|------|--------||
|------------|---------|------|--------||
|------------|---------|------|--------||
|------------|---------|------|--------||
|------------|---------|------|--------||


  G5          F5G5  Bb5  G5          F5G5N.C.
                                         Gtr III
  S S S S S E S e e Q    S S S S +S  S S S S S S S S S S S
|----------------------|-----------------------------------|
|----------------------|-----------------------------------|
|-------------------3--|-----------------5---3-------------|
|-5-5---5---5-3-5-5-3--|-5-5---5-(5)-3-5---5---3-5---3-----|
|-5-5---5---5-3-5-5----|-5-5---5-(5)-3-5-----------5---3-5-|
|----------------------|-----------------------------------|


  G5          F5G5  BbC5Bb5
  Gtr I
  S S S S S E S e e S S E
|-------------------------|
|-------------------------|
|-------------------3-5p3-|
|-5-5---5---5-3-5-5-3-5p3-|
|-5-5---5---5-3-5-5-------|
|-------------------------|


  G5          F5G5            N.C.
                                    ~~~~~~          ~~~~~~
  S S S S +S  S E E E  Q      S S S S +E  S S S S S S +E  S S
|--------------------------||---------------------------------|
|--------------------------||---------------------------------|
|--------------------------||---------------------------------|
|-5-5---5-(5)-3-5---x\-x\--||---------------------------------|
|-5-5---5-(5)-3-5----------||-------------1---3-1---1-(1)-3-1-|
|--------------------------||-0-1-2-3-(3)---3-----3-----------|


                  ~~~~~~
      |---3---|
  E   S   +S  S E E +E  E  E E
|-------------------------------|
|-------------------------------|
|-------------------------------|
|-------------------------------|
|-3b5-3b5r(3)p1---1-(1)---------|
|---------------3-------3-/x-x--|


        ~~~~~~          ~~~~~~
  S S S S +E  S S S S S S +E  S S
|---------------------------------|
|---------------------------------|
|---------------------------------|
|---------------------------------|
|-------------1---3-1---1-(1)-3-1-|
|-0-1-2-3-(3)---3-----3-----------|


 9/8
      |---3---|       |---3---|       |---3---|
  E   S   +S  S E E   S   +S  S E E   S   +S  S E
|-------------------------------------------------||
|-------------------------------------------------||
|-------------------------------------------------||
|-------------------------------------------------||
|-3b5-3b5r(3)p1---3b5-3b5r(3)p1---3b5-3b5r(3)p1---||
|---------------3---------------3---------------3-||


 Free time
  Bb5                     C5
 4/4
              ~~~
  W           W           W           E   +S    +S    +E    +E    +Q    Q
|----------:------------:----------:----------------------------------------:
|----------:------------:----------:----------------------------------------:
|-3--------:-[3]--------:-5--------:-[5]-([5])-([5])-([5])-([5])-([5])------:
|-3--------:-[3]--------:-5--------:-[5]-([5])-([5])-([5])-([5])-([5])------:
|-1--------:-[1]--------:-3--------:-[3]-([3])-([3])-([3])-([3])-([3])------:
|----------:------------:----------:----------------------------------------:


  N.C.
  Gtr I
  E E S S S S S S S S S S S S   S S S  S  S S S  S  S  S  S  S  S  S  S  S
|-3s1-1s3-3s6-6s3-3s6-6s8-8s6-:-6s8-8s10-10s8-8s10-10s13-13s10-10s13-13s10-|
|-3s1-1s3-3s6-6s3-3s6-6s8-8s6-:-6s8-8s10-10s8-8s10-10s13-13s10-10s13-13s10-|
|-----------------------------:--------------------------------------------|
|-----------------------------:--------------------------------------------|
|-----------------------------:--------------------------------------------|
|-----------------------------:--------------------------------------------|


  Gtr I
                           TP
   S  S  S  S  S  S  S  S  H        Q   Q  H
|-10s13-13s15-15s13-13s15-15----:---------------*|
|-10s13-13s15-15s13-13s15-15----:---------------*|
|-------------------------------:---------------*|
|-------------------------------:---------------*|
|-------------------------------:---------------*|
|-------------------------------:---x\----------*|
|
| Gtr III
|  W                                Q   Q  H
|-------------------------------:---------------*|
|-------------------------------:---------------*|
|-------------------------------:-/17\----------*|
|-------------------------------:---------------*|
|-------------------------------:---------------*|
|-------------------------------:---------------*|


Duration Legend
---------------
W - whole; H - half; Q - quarter; E - 8th; S - 16th; T - 32nd; X - 64th; a - acciaccatura
+ - note tied to previous; . - note dotted; .. - note double dotted
Uncapitalized letters represent notes that are staccato (1/2 duration)
Irregular groupings are notated above the duration line
Duration letters will always appear directly above the note/fret number it represents the
duration for.  Duration letters with no fret number below them represent rests.  Multi-
bar rests are notated in the form Wxn, where n is the number of bars to rest for.  Low
melody durations appear below the staff

Tablature Legend
----------------
 h   - hammer-on
 p   - pull-off
 b   - bend
 pb  - pre-bend
 r   - bend release (if no number after the r, then release immediately)
 /\  - slide into or out of (from/to "nowhere")
 s   - legato slide
 S   - shift slide
  - natural harmonic
[n]  - artificial harmonic
n(n) - tapped harmonic
 ~   - vibrato
 tr  - trill
 T   - tap
 TP  - trem. picking
 PM  - palm muting
\n/  - tremolo bar dip; n = amount to dip
 \n  - tremolo bar down
 n/  - tremolo bar up
/n\  - tremolo bar inverted dip
 =   - hold bend; also acts as connecting device for hammers/pulls
 <>  - volume swell (louder/softer)
 x   - on rhythm slash represents muted slash
 o   - on rhythm slash represents single note slash

Misc Legend
-----------
 |  - bar
||  - double bar
||o - repeat start
o|| - repeat end
*|  - double bar (ending)
 :  - bar (freetime)
 $  - Segno
 &  - Coda
Tempo markers -  = BPM(8/16=s8/s16), where s8 = swing 8ths, s16 = swing 16ths

            
            
Suggest correction
Creating personal tab
Creating personal tab
You can edit any tab online and save it as your Personal.

You can edit, replace or remove any tab part or add personal notes – all changes will be seen only by you.

Personal tabs can be accessed anytime from any device, even offline.
Learn more »
Give kudos to tab author, rate the tab!
1 2 3 4 5
comments
print report bad tab
guest
You may want to rate the tab now too:
select rating
Wanna post a correction for this tab? Suggest correction