Oops, an error
Loading. Please wait.

Puppy Dog Snails tab

254 views 3 this week
no commentswrite comment
1 2 3 4 5
3 more votes to show rating
add to favorites
×
Save as Personal and add changes to this tab that will be seen only by you. Learn more ›
×
You can save this tab as Personal to edit and correct it or add notes. All changes will be seen only by you. Learn more »
launch autoscroll
font size
0
reset
how to read this tab
guitar tuner
edit
Autoscroll
slow
fast
+/-
esc
set tempo
stop
i submitted most of the EMBLD tabs here, and most are pretty close if not perfect :D

i have most of the royal society figured out too.

here is puppy dog snails:

intro: lead guitar, plays a couple of times

|-17----------17---------17---------|
|------17----------17----------17---|
|---17----17----17----17----17---17-|
|-----------------------------------|
|-----------------------------------|
|-----------------------------------|

verse:

rythm:

|-------------------------------------|
|-------------------------------------|
|-------------------------------------|
|------2-------2---------2--------2---|
|-0-h3---3---3---3--0-h3---3-0-h3---3-|
|----------4--------------------------|

after a couple of times it changes to:.........then goes back to normal

|------------------------------|
|------------------------------|
|------------------------------| this is played before the chrous also
|-----2------2-------2-------2-|
|---3--3---3---3---3---3---3---|
|-4------4-------4-------4-----|

lead:

|-17-------------16-------------17--------------17-------|
|-------17------------17-------------17------------17----|
|----17----17------17----17-------17----17------17---17--|
|--------------------------------------------------------|
|--------------------------------------------------------|
|--------------------------------------------------------|

changes to this when rythm does changes

|-16------------16-----------16------------16----------|
|--------17----------17----------17-----------17-------|
|-----17---17-----17---17-----17----17------17----17---|
|------------------------------------------------------| also,
|------------------------------------------------------|
|------------------------------------------------------|

chorous: both guitars, played twice

|---------------------------------|
|---------------------------------|
|---------------------------------|
|-6-6-6-6-5-5-5-5-4-4-4-4-5-5-5-5-| played multiple times until:
|-6-6-6-6-5-5-5-5-4-4-4-4-5-5-5-5-|
|-4-4-4-4-3-3-3-3-2-2-2-2-5-5-5-5-|

-----------------------------|
-----------------------------|
-----------------4!-5!-6!----|
-6-6-6-6-5-5-5-5-4!-5!-6!-4!-|
-6-6-6-6-5-5-5-5-2!-3!-4!-4!-|
-4-4-4-4-3-3-3-3----------2!-|

verse

chrous

interlude; this is out of beat and is supposed to be. played 3(or maybe its 4) times

|
|----------------------------------------------------------------|
|----------------------------------------------------------------|
|-66-x-x-66-x-x-66-x-x-66-x-x-55-x-x-55-x-x-55-x-x-88-x-x-88-x-x-|
|-66-x-x-66-x-x-66-x-x-66-x-x-55-x-x-55-x-x-55-x-x-88-x-x-88-x-x-|
|-44-x-x-44-x-x-44-x-x-44-x-x-33-x-x-33-x-x-33-x-x-66-x-x-66-x-x-|

-------------------------|
-------------------------|
-------------------------|
-66-x-x-66-x-x-55-x-x-55-|
-66-x-x-66-x-x-55-x-x-55-|
-44-x-x-44-x-x-33-x-x-33-|

lead: this is VERY hard to tab, so i have pretty much just put the chords down, it is 
to tab the rythm of it. played same amount of times as the rythm guitar

|------------------------------|
|------------------------------|
|------------------------------|
|-6-6-6-\5-5-/1010-\-3-3\2-2-2-|
|-6-6-6-\5-5-/1010-\-3-3\2-2-2-|
|-4-4-4-\3-3-/7-6--\-3-3\2-2-2-|

then the rythm just plays the verse whilst the lead plays the "solo"

|-------------------------------------------------|
|-------------------------------------------------|
|-2-21-1-2-1------2-21-1-2----2-21-1-2-1-------1--|
|------------2----------------------------2-------|
|--------------0----------------------------0-----|
|-------------------------------------------------|

back to chorus: play all manked up like on the song (what do we do with a puppy dogs 
do we do with a bucket of what do we doo with a boy like we put them in a box then we throw 
on the fire) missing out the last note.

also with the  lead playing this other little bit on top:

|---11-12-------11-12-------|
|-14-------14-12-------12-9-|
|---------------------------|
|---------------------------|
|---------------------------|
|---------------------------|

until the end. will post the other tabs some other tim ;)

sticky.

            
            
Suggest correction
Creating personal tab
Creating personal tab
You can edit any tab online and save it as your Personal.

You can edit, replace or remove any tab part or add personal notes – all changes will be seen only by you.

Personal tabs can be accessed anytime from any device, even offline.
Learn more »
Give kudos to tab author, rate the tab!
1 2 3 4 5
comments
print report bad tab
guest
Wanna post a correction for this tab? Suggest correction