Oops, an error
Loading. Please wait.

Best Of My Love bass

version 2
version 2

Whole song

Interactive

172 views 3 this week
no commentswrite comment
1 2 3 4 5
3 more votes to show rating
add to favorites
×
Save as Personal and add changes to this tab that will be seen only by you. Learn more ›
×
You can save this tab as Personal to edit and correct it or add notes. All changes will be seen only by you. Learn more »
launch autoscroll
font size
0
reset
guitar tuner
edit
Autoscroll
slow
fast
+/-
esc
set tempo
stop
Author
Title: Best of my Love
Artist: The Emotions
Tempo = 114
Electric Bass


[Intro]

G|----------------------------------------------------|
D|--5--5--------------5--5--------------5--5----------|
A|----------------------------------------------------|
E|--------3.----3.----------3.----3.------------------|
    s  s  e.   e.     s  s  e.    e.    s   s   e

G|----------------------------------------------------|
D|--------------------5--5--5--5----------------------|
A|----------------------------------------------------|
E|----------------------------------------------------|
      q.            s  s  s  s    q.

G|----------------------------|----------------------------|
D|--3--------x--2--------x----|--0--------x-----0--2-------|
A|----------------------------|--------------3-------------|
E|----------------------------|----------------------------|
  e   q    e   e   q   e       e   q    e  e   e  q

G|----------------------------|
D|--3--------3--2--------2----|
A|----------------------------|
E|----------------------------|
  e   q    e   e   q   e 

G|----------------------------------------------------|
D|--0-----2-----3--------3--------0-----2-------------|
A|--------------------------3-------------------------|
E|----------------------------------------------------|
  e    e      e.      s   e     e     q


[Verse]

G|----------------------------|----------------------------|
D|--3--------3--2--------x----|--0--------x-----0--2-------|
A|-----3----------------------|--------------3-------------|
E|----------------------------|----------------------------|

G|----------------------------|
D|--3--------3--2--------2----|
A|----------------------------|
E|----------------------------|

G|----------------------------------------------------|
D|--0-----2-----3-------------------------------------|
A|-----------------------x--3-------------------------|
E|-----------------------------------x--3-------------|

G|----------------------------------------------------|
D|--------------------x-----2-----------------x-------|
A|--3-------------------------------------------------|
E|----------------------------------------------------|

G|----------------------------|----------------------------|
D|--0--------x-----0--2-------|--3--------x--2--------x----|
A|--------------3-------------|----------------------------|
E|----------------------------|----------------------------|

G|----------------------------------------------------|
D|--0-----2-----3-----------------0-----2-------------|
A|-----------------------3--3-------------------------|
E|----------------------------------------------------|

G|----------------------------|----------------------------|
D|--3--------x--2--------x----|--0--------x-----0--2-------|
A|----------------------------|--------------3-------------|
E|----------------------------|----------------------------|

G|----------------------------|
D|--3--------x--2-------------|
A|----------------------------|
E|----------------------------|

G|----------------------------------------------------|
D|--0-----2-----3--------3--------0-----------2-------|
A|--------------------------3-------------------------|
E|----------------------------------------------------|

G|----------------------------|----------------------------|
D|--3--------x--2--------x----|--0--------x-----0--2-------|
A|----------------------------|--------------3-------------|
E|----------------------------|----------------------------|

G|----------------------------|
D|--3--------x--2--------x----|
A|----------------------------|
E|----------------------------|

G|----------------------------------------------------|
D|--0-----2-----3-------------------------------------|
A|-----------------------0--3-----0-------------------|
E|--------------------------------------3-----1-------|


[Chorus]

G|----------------------------|----------------------------|
D|--3--------3--2--------2----|--0--------0-----0--2-------|
A|----------------------------|--------------3-------------|
E|----------------------------|----------------------------|

G|----------------------------|----------------------------|
D|--3--------3--2--------2----|--0--2--3-----------0--2----|
A|----------------------------|--------------3-------------|
E|----------------------------|----------------------------|

G|----------------------------|----------------------------|
D|--3--------3--2--------x----|--0--------x-----0--2-------|
A|----------------------------|--------------3-------------|
E|----------------------------|----------------------------|

G|----------------------------|
D|--3--------x--2--------x----|
A|----------------------------|
E|----------------------------|

G|----------------------------------------------------|
D|--0-----2-----3-----------------0-----2-------------|
A|-----------------------0--3-------------------------|
E|----------------------------------------------------|


[Verse]

G|----------------------------|
D|--3--------x--2--------x----|
A|----------------------------|
E|----------------------------|

G|----------------------------------------------------|
D|--0-----------------x-------------------------------|
A|--------------------------3--------1----------------|
E|--------------------------------------3-----1-------|

G|----------------------------|
D|--3--------x-----------x----|
A|--------------3-------------|
E|----------------------------|

G|----------------------------------------------------|
D|--0-----2-----3-----------------0-----2-------------|
A|-----------------------3--3-------------------------|
E|----------------------------------------------------|

G|----------------------------|----------------------------|
D|--3--------x--2--------x----|--0--------x-----0--2-------|
A|----------------------------|--------------3-------------|
E|----------------------------|----------------------------|

G|----------------------------|
D|--3--------x--2--------x----|
A|----------------------------|
E|----------------------------|

G|----------------------------------------------------|
D|--0-----2-----3-----------------0-----2-------------|
A|-----------------------3--3-------------------------|
E|----------------------------------------------------|


[Bridge]

G|----------------------------------------------------|
D|--x-----3--------3-----3--3-------------------------|
A|--------------------------------------3-------------|
E|----------------------------------------------------|
   e     e.       e     s  q           q

G|----------------------------------------------------|
D|--x-----2--------2-----2--2-------------------------|
A|--------------------------------------2-------------|
E|----------------------------------------------------|
  e     e.       e     s  q           q

G|----------------------------------------------------|
D|--x-----0--------0-----0--0-------------------------|
A|----------------------------------------------------|
E|----------------------------------------------------|
  e     e.       e     s  q           

G|----------------------------------------------------|
D|--------------------------------------0-------------|
A|--x-----3--------3-----3--3-------------------------|
E|----------------------------------------------------|
  e     e.       e     s  q           q

G|----------------------------------------------------|
D|--x-----3--------3-----3--3-------------------------|
A|----------------------------------------------------|
E|----------------------------------------------------|
  e     e.       e     s  q           q

G|----------------------------------------------------|
D|--x-----2--------2-----2--2-------------------------|
A|----------------------------------------------------|
E|----------------------------------------------------|
  e     e.       e     s  q           q

G|--x-----0--------0-----0--0-------------------------|
D|----------------------------------------------------|
A|----------------------------------------------------|
E|----------------------------------------------------|
  e     e.       e     s  q           q

G|--x-----2--------2-----2--2-------------------------|
D|--------------------------------------2-------------|
A|----------------------------------------------------|
E|----------------------------------------------------|
  e     e.       e     s  q           q

G|----------------------------|
D|--0--------0--0-----0-------|
A|----------------------------|
E|----------------------------|
  q   e     e  q    q    

G|----------------------------------------------------|
D|--5--5--------------5--5--------------5--5----------|
A|----------------------------------------------------|
E|--------3.----3.----------3.----3.------------------|


[Chorus]

G|----------------------------|----------------------------|
D|--3--------3--2--------2----|--0--------0-----0--2-------|
A|----------------------------|--------------3-------------|
E|----------------------------|----------------------------|

G|----------------------------|----------------------------|
D|--3--------3--2--------2----|--0--2-----3-----0--2-------|
A|----------------------------|--------------3-------------|
E|----------------------------|----------------------------|

G|----------------------------|----------------------------|
D|--3--------3--2--------2----|--0--------0-----0--2-------|
A|----------------------------|--------------3-------------|
E|----------------------------|----------------------------|

G|----------------------------|----------------------------|
D|--3--------3--2--------2----|--0--2-----3-----0--2-------|
A|----------------------------|--------------3-------------|
E|----------------------------|----------------------------|


[Verse]

G|----------------------------|----------------------------|
D|--3--------3--2--------2----|--0--------0-----0--2-------|
A|----------------------------|--------------3-------------|
E|----------------------------|----------------------------|

G|----------------------------|----------------------------|
D|--3--------3--2--------2----|--0--2-----3-----0--2-------|
A|----------------------------|--------------3-------------|
E|----------------------------|----------------------------|

G|----------------------------|----------------------------|
D|--3--------3--2--------2----|--0--------0-----0--2-------|
A|----------------------------|--------------3-------------|
E|----------------------------|----------------------------|

G|----------------------------|----------------------------|
D|--3--------3--2--------2----|--0--2-----3-----0--2-------|
A|----------------------------|--------------3-------------|
E|----------------------------|----------------------------|


[Bridge]

G|----------------------------------------------------|
D|--x-----3--------3-----3--3-------------------------|
A|--------------------------------------3-------------|
E|----------------------------------------------------|

G|----------------------------------------------------|
D|--x-----2--------2-----2--2-------------------------|
A|--------------------------------------2-------------|
E|----------------------------------------------------|

G|----------------------------------------------------|
D|--x-----0--------0-----0--0-------------------------|
A|----------------------------------------------------|
E|----------------------------------------------------|

G|----------------------------------------------------|
D|--------------------------------------0-------------|
A|--x-----3--------3-----3--3-------------------------|
E|----------------------------------------------------|

G|----------------------------------------------------|
D|--x-----3--------3-----3--3-------------------------|
A|----------------------------------------------------|
E|----------------------------------------------------|

G|----------------------------------------------------|
D|--x-----2--------2-----2--2-------------------------|
A|----------------------------------------------------|
E|----------------------------------------------------|

G|--x-----0--------0-----0--0-------------------------|
D|----------------------------------------------------|
A|----------------------------------------------------|
E|----------------------------------------------------|

G|--x-----2--------2-----2--2-------------------------|
D|--------------------------------------2-------------|
A|----------------------------------------------------|
E|----------------------------------------------------|

G|----------------------------|
D|--0--------0--0-----0-------|
A|----------------------------|
E|----------------------------|

G|----------------------------------------------------|
D|--5--5--------------5--5--------------5--5----------|
A|----------------------------------------------------|
E|--------3.----3.----------3.----3.------------------|

G|----------------------------------------------------|
D|--------------------5--5--5--5----------------------|
A|----------------------------------------------------|
E|----------------------------------------------------|


[Outro]

G|----------------------------|----------------------------|
D|--3--------3--2--------2----|--0--------0-----0--2-------|
A|----------------------------|--------------3-------------|
E|----------------------------|----------------------------|

G|----------------------------|----------------------------|
D|--3--------3--2--------2----|--0--2-----3-----0--2-------|
A|----------------------------|--------------3-------------|
E|----------------------------|----------------------------|

G|----------------------------|----------------------------|
D|--3--------3--2--------2----|--0--------0-----0--2-------|
A|----------------------------|--------------3-------------|
E|----------------------------|----------------------------|

G|----------------------------|----------------------------|
D|--3--------3--2--------2----|--0--------0-----0--2-------|
A|----------------------------|--------------3-------------|
E|----------------------------|----------------------------|

G|----------------------------|----------------------------|
D|--3--------3--2--------2----|--0--2-----3-----0--2-------|
A|----------------------------|--------------3-------------|
E|----------------------------|----------------------------|

G|----------------------------|----------------------------|
D|--3--------3--2--------2----|--0--------0-----0--2-------|
A|----------------------------|--------------3-------------|
E|----------------------------|----------------------------|

G|----------------------------|----------------------------|
D|--3--------3--2--------2----|--0--------0-----0--2-------|
A|----------------------------|--------------3-------------|
E|----------------------------|----------------------------|

G|----------------------------|----------------------------||
D|--3--------3--2--------2----|--0--2-----3-----0--2-------||
A|----------------------------|--------------3-------------||
E|----------------------------|----------------------------||


************************************

| x  Dead note
| .  Staccato

************************************

            
            
Suggest correction
Creating personal tab
Creating personal tab
You can edit any tab online and save it as your Personal.

You can edit, replace or remove any tab part or add personal notes – all changes will be seen only by you.

Personal tabs can be accessed anytime from any device, even offline.
Learn more »
Give kudos to tab author, rate the tab!
1 2 3 4 5
comments
print report bad tab
guest
You may want to rate the tab now too:
select rating
Wanna post a correction for this tab? Suggest correction