Oops, an error
Loading. Please wait.

Drop The Bomb bass

203 views 1 this week
no commentswrite comment
1 2 3 4 5
3 more votes to show rating
add to favorites
×
Save as Personal and add changes to this tab that will be seen only by you. Learn more ›
×
You can save this tab as Personal to edit and correct it or add notes. All changes will be seen only by you. Learn more »
launch autoscroll
font size
0
reset
guitar tuner
edit
Autoscroll
slow
fast
+/-
esc
set tempo
stop
Author
Difficulty
Artist:The Erotics
Song:Drop The Bomb
Album:Rock N Roll Killing Machine
Bassist:Billy Belaire
Tabber:Dev Fuld

First off, I love this band. So unknown, but so killer! This tab
may be a little hard to follow, so just read it carefully.

Key:
* = Let it ring
x = Times a number

*Guitar Intro*

Intro
G:-----|R|-----|R|-----|R|
D:-----|E|-----|E|-----|E|
A:-----|S|-----|S|-----|S|
E:2-2-2|T|2-2-2|T|2-2-2|T|

G:-----------------------|-----------------------|
D:-----------------------|-----------------------|
A:---------------2*--0*--|---------------2*--0*--|
E:2*--0--2-2*--0--------0|2*--0--2-2*--0--------0|

G:-----------------------|-----------------------|
D:-----------------------|-----------------------|
A:---------------2*--0*--|---------------2*--0*--|
E:2*--0--2-2*--0--------0|2*--0--2-2*--0--------0|

Verse
G:---------------------------|---------------------------|
D:---------------------------|---------------------------|
A:--------------2--2x7-0--0x7|--------------2--2x7-0--0x7|
E:2--2x7-2--2x7--------------|2--2x7-2--2x7--------------|

Pre-Chorus
G:------------------|------------------|
D:------------------|------------------|
A:----------2*--2-2*|----------5*--4*--|
E:0*--0-0*----------|0*--0-0*----------|

Chorus
G:---------------------|---------------------|
D:---------------------|---------------------|
A:--------0--0x7-2--2x7|--------0--0x7-2--2x7|
E:2--2x17--------------|2--2x17--------------|

G:----------------|
D:----------------|
A:--------5*--4*--|
E:2--2x17---------|

After Chorus
G:-----------------------|-----------------------|
D:-----------------------|-----------------------|
A:---------------2*--0*--|---------------2*--0*--|
E:2*--0--2-2*--0--------0|2*--0--2-2*--0--------0|

Verse

Pre-Chorus

Chorus

After Chorus 2
G:-----------------------|-----------------------|
D:-----------------------|-----------------------|
A:---------------2*--0*--|---------------2*--0*--|
E:2*--0--2-2*--0--------0|2*--0--2-2*--0--------0|

G:-----------------------|-------------------------------|
D:-----------------------|-------------------------------|
A:---------------2*--0*--|-------------------------------|
E:2*--0--2-2*--0--------0|2-2-2-3-3-3-4-4-4-5-5-5-6-6-7-7|

Solo
G:-----------------------|-----------------------|
D:---------------2*--0*--|---------------2*--0*--|
A:2*--0--2-2*--0--------0|2*--0--2-2*--0--------0|
E:-----------------------|-----------------------|

G:-----------------------|-------------------------------|
D:---------------2*--0*--|-------------------------------|
A:2*--0--2-2*--0--------0|2-2-2-3-3-3-4-4-4-5-5-5-6-6-7-7|
E:-----------------------|-------------------------------|

G:-----------------------|-----------------------|
D:-----------------------|-----------------------|
A:---------------2*--0*--|---------------2*--0*--|
E:2*--0--2-2*--0--------0|2*--0--2-2*--0--------0|

G:-----------------------|-------------------------------|
D:-----------------------|-------------------------------|
A:---------------2*--0*--|2-2-2-3-3-3-4-4-4-5-5-5-6-6-7-7|
E:2*--0--2-2*--0--------0|-------------------------------|

Pre-Chorus

Break

Chorus

End
G:-----------------------|-----------------------|
D:-----------------------|-----------------------|
A:---------------2*--0*--|---------------2*--0*--|
E:2*--0--2-2*--0--------0|2*--0--2-2*--0--------0|

G:-----------------------|------------------|
D:-----------------------|------------------|
A:---------------2*--0*--|---------------7-9|
E:2*--0--2-2*--0--------0|2*--0--2-2*--0----|

That's it! Such an awesome tune. So play it with attitude and do it some justice! I also 
put it in the correct order. Any questions or comments, e-mail me at rocklvson@yahoo.com

            
            
Suggest correction
Creating personal tab
Creating personal tab
You can edit any tab online and save it as your Personal.

You can edit, replace or remove any tab part or add personal notes – all changes will be seen only by you.

Personal tabs can be accessed anytime from any device, even offline.
Learn more »
Give kudos to tab author, rate the tab!
1 2 3 4 5
comments
print report bad tab
guest
You may want to rate the tab now too:
select rating
Wanna post a correction for this tab? Suggest correction