Oops, an error
Loading. Please wait.
We have an official All I Have To Do Is Dream tab made by UG professional guitarists. Check out the tab »
×
1,489 views 6 this week
no commentswrite comment
1 2 3 4 5
3 more votes to show rating
add to favorites
×
Save as Personal and add changes to this tab that will be seen only by you. Learn more ›
×
You can save this tab as Personal to edit and correct it or add notes. All changes will be seen only by you. Learn more »
launch autoscroll
font size
0
reset
how to read this tab
guitar tuner
backing track
0:00
0:00
edit
Autoscroll
slow
fast
+/-
esc
set tempo
stop
Author
Difficulty
All I Have To Do Is Dream
Famous worldwide number 1 for The Everly Brothers in 1958 written by
Felice and Boudleaux Bryant. Tab by bass50611.
Straight forward and easy song. Any comments its
bass254@btinternet.com

Intro:                    (Play This x2)
G|---------|----------------------------|
D|-SINGLE--|----------------------------|
A|-E CHORD-|-7---7-6-4---4--------------|
E|---------|--------------7-5---5-6-7-7-|

Verse 1,2 & Chorus:        (Play This x7)
G|----------------------------|
D|----------------------------|
A|-7---7-6-4---4--------------|
E|--------------7-5---5-6-7-7-|

Bridge:
G|----------------------------------------------------------------|
D|---------------------------66---7-77---6-66------------------66-|
A|---------------------77-99------------------9--9----7---77-99---|
E|-0--0-0---5--5-5---0----------------------------7--7------------|

G|--------------------------------|
D|-7-77---6-66---8-11-8---9-7-6---|
A|--------------9---------------9-|
E|--------------------------------|

Repeat Verse & Chorus: (Play x4)

Repeat Bridge:

Repeat Verse & Chorus to Fade/End

            
            
Suggest correction
Creating personal tab
Creating personal tab
You can edit any tab online and save it as your Personal.

You can edit, replace or remove any tab part or add personal notes – all changes will be seen only by you.

Personal tabs can be accessed anytime from any device, even offline.
Learn more »
Give kudos to tab author, rate the tab!
1 2 3 4 5
comments
print report bad tab
guest
You may want to rate the tab now too:
select rating
Wanna post a correction for this tab? Suggest correction