Oops, an error
Loading. Please wait.
We have an official Love Hurts tab made by UG professional guitarists. Check out the tab »
×
211 views 1 this week
no commentswrite comment
1 2 3 4 5
2 more votes to show rating
add to favorites
×
Save as Personal and add changes to this tab that will be seen only by you. Learn more ›
×
You can save this tab as Personal to edit and correct it or add notes. All changes will be seen only by you. Learn more »
launch autoscroll
font size
0
reset
guitar tuner
edit
Autoscroll
slow
fast
+/-
esc
set tempo
stop
Author
Difficulty
Love Hurts
Although never released as a single this original version by
The Everly Brothers was a very popular album track on both sides of
The Atlantic. Tab by bass50611.  Great song and straight forward

Intro:
G|-------------------------------
D|-4----------------4---------2--
A|----4-----------2---4--------4-
E|-----2--2-2---0------2--2-2----

Verse 1:
   Love hurts....Love scars....Love wounds and mars....Any heart
G|----------------------------------------------------------------
D|------4-------------1---1--------------------------------4---4--
A|----------------------------------2---2------4--4---------------
E|---------2------------------------------------------------------

  Not tough....Not strong...enough...To take a lot of pain
G|--------------------------------------------------------
D|----1---1--------------------------------------------4--
A|-----------------2---2----4---4-------------------------
E|--------------------------------------------------------

  Take a lot of pain...Love is like a cloud. Holds a lot of rain
G|----------------------------------------------------------------
D|--------------1-------------------------------------------------
A|-1-------------------4--------------2------2--------3-----4---4-
E|----------------------------------------------------------------

Chorus 1:
  Love hurts........Love hurts
G|-------------------------------------
D|-----4-----4---2-------4------4---2--
A|----------------2------------------4-
E|--------2-----------------2----------

For Verse 2 - Repeat Verse 1 Using Same Format:

Chorus 1:
  Love hurts........Love hurts
G|-------------------------------------
D|-----4-----4---2-------4------4-2-1--
A|----------------2------------------4-
E|--------2-----------------2----------

Bridge:
  Some fools rave of happiness blissfulness togetherness,.Some fools fool
G|-----------------------------------------------------------------------
D|------------------------1------------1------------1---4--6-------------
A|-2---------2-------1---------1-------------1-----------------------6---
E|-----------------------------------------------------------------------

  Themselves I guess...But they’re not fooling me  (Break)
G|--------------------------------------------------
D|----6--------------------6-------6----------------
A|-------------6------------------------------4-4-4-
E|--------------------------------------------------

Part Verse:
  I know it isn’t true, know it isn’t true...Love is just a lie
G|-------------------------------------------------------------
D|----------------4-------------------1------------------------
A|----------------------1--------------------4--------------2--
E|-------------------------------------------------------------

   Made to make you blue
G|------------------------
D|------------------------
A|-2-------3--------4---4-
E|------------------------

Final Chorus:
  Love hurts........Love hurts.........Love hurts   (Repeat TO Fade/End)
G|--------------------------------------------------------
D|-----4-----4---2-------4------4---2-------4----4---2----
A|----------------2------------------2----------------2---
E|--------2-----------------2------------------2----------


Love Hurts (Alternative Version)
This upbeat version of Love Hurts by The Everly’s is taken from the 1975
Music Cassette Album Walk Right Back. With a Drum Driven beat this is so
much better than the original recording. Anybody struggling to obtain the 
track my e-mail address is bass254@btinternet.com 

Intro:
G|------------------------------------
D|-7-7------7-7------7-7------7-7-----
A|-----7-7------7-7------7-7------7-7-
E|------------------------------------

Verse 1:
   Love hurts......Love scars......Love wounds and mars........Any heart
G|------------------------------------------------------------------------
D|--7-7----7-7-----4-4----4-4---------7-7----7-7-------------------7-7----
A|-----7-7----7-7-----4-4----4-4---5-5----5-5------7-7----7-7---------7-7-
E|----------------------------------------------------7-7----7-7----------

........Not tough.......or strong........strong enough..Take a lot of pain
G|------------------------------------------------------------------------
D|-7-7------4-4----4-4---------7-7---7-7------------------------------7---
A|----7-7------4-4----4-4---5-5---5-5--------7-7----7-7-------------------
E|----------------------------------------------7-7----7-7----------------

Take a lot of pain..Love is like a cloud. Holds a lot of rain..(Drum Break)
G|-------------------------------------------------------------
D|------------4------------------------------------------------
A|----------------------------------5----------------------7---
E|-------------------------------------------------------------

Verse 2: (Part Of)
   Love hurts......Love hurts......Love hurts......Love hurts
G|---------------------------------------------------------------
D|--7-7----7-7-----4-4----4-4---------7-7----7-7-----------------
A|-----7-7----7-7-----4-4----4-4---5-5----5-5------7-7----7-7----
E|----------------------------------------------------7-7----7-7-

Solo And Part Verse: (Use Verse 1 Format)

Outro: (Repeat Verse 1 To Fade/End)

            
            
Suggest correction
Creating personal tab
Creating personal tab
You can edit any tab online and save it as your Personal.

You can edit, replace or remove any tab part or add personal notes – all changes will be seen only by you.

Personal tabs can be accessed anytime from any device, even offline.
Learn more »
Give kudos to tab author, rate the tab!
1 2 3 4 5
comments
print report bad tab
guest
You may want to rate the tab now too:
select rating
Wanna post a correction for this tab? Suggest correction