Oops, an error
Loading. Please wait.

Bowl For Two bass

version 1
version 1

Whole song

18,087 views 27 this week
2 commentsread comments
1 2 3 4 5
x 3
add to favorites
×
Save as Personal and add changes to this tab that will be seen only by you. Learn more ›
×
You can save this tab as Personal to edit and correct it or add notes. All changes will be seen only by you. Learn more »
launch autoscroll
font size
0
reset
guitar tuner
edit
Autoscroll
slow
fast
+/-
esc
set tempo
stop
Author
Difficulty
-------------------------------------------------------------------------------
			     "Bowl for Two" by The Expendables
-------------------------------------------------------------------------------

Tabbed By : Wesley Lai
e-mail: stinger12345@aol.com

Tuning: Standard


Intro

G|-------------------------------------------------------------------------------|
D|-------------------------------------------------------------------------------|
A|-----2-------------------------------------------------------------------------|
E|--3-----0----------------------------------------------------------------------|


Chorus

G|--------------------------0---------------------------------------------------------|
D|----------------------0-2--2-0-2---2-0----------------------------------------------|
A|--------0-2-2--------------------------2-0------------------------------------------|
E|--3-3-3-------3-3-0-0---------------------------------------------------------------|

Verse

G|-------------------------------------------------------------------------------|
D|-------------------------------------------------------------------------------|
A|-----2-------------------------------------------------------------------------|
E|--3----3--0--0-0-2-2-----------------------------------------------------------|

Bridge

G|---|----------------------------------5-|-------------------------------------------|
D|---|------0-2-2----0-2-2-------5---5----|---on third time---------------------------|
A|-3-|----3--------3-------2-3-3---3------|--5----------------------------------------|
E|---|------------------------------------|-------------------------------------------|


===============================================================================

            
            
Suggest correction
Creating personal tab
Creating personal tab
You can edit any tab online and save it as your Personal.

You can edit, replace or remove any tab part or add personal notes – all changes will be seen only by you.

Personal tabs can be accessed anytime from any device, even offline.
Learn more »
Give kudos to tab author, rate the tab!
1 2 3 4 5
comments
print report bad tab
2 comments total.
0 reply
Green2Black9009 10 Mar 19, 2010 04:37 PM

during the guitar solo near the end the bass does the beginning of the chorus but then does a bit of a twist that i dont recognise on the tab. can anybody help wit this?

0 reply
t.mccoy89 10 May 31, 2015 04:55 AM

Tab incomplete. this tab misses the part that goes between C and D at the bridge no bridge tabbed yo words words

guest
You may want to rate the tab now too:
select rating
Wanna post a correction for this tab? Suggest correction