Oops, an error
Loading. Please wait.

Bowl For Two tab

version 2
version 2

Whole song

42,509 views 24 this week
3 commentsread comments
1 2 3 4 5
x 5
add to favorites
×
Save as Personal and add changes to this tab that will be seen only by you. Learn more ›
×
You can save this tab as Personal to edit and correct it or add notes. All changes will be seen only by you. Learn more »
launch autoscroll
font size
0
reset
how to read this tab
guitar tuner
edit
Autoscroll
slow
fast
+/-
esc
set tempo
stop
Author
Difficulty
The Expendables - Bowl for Two
My arrangement of the song...it works.  
I hope this helps with any questions one may have!
Hit me up on facebook (Positive Vibes)



Intro - x2

e|-------------------------------------------3----0----3-0-------|
B|-------------------------------------------0-----0----0--------|
G|-------------------------------------------0------0------------|
D|--------------------0---0h2p0---0----------0-------------------|
A|----0---0h2p0---0-2---2-------2---2--/7----2-------------------|
E|--3---3-------3-------------------------0--x-------------------|


e|-------------------------------------------3------x12x---------|
B|-------------------------------------------0------x12x---------|
G|-------------------------------------------0------xxx----------|
D|--------------------0---0h2p0---0----------0------xxx----------|
A|----0---0h2p0---0-2---2-------2---2--/7----2------xxx----------|
E|--3---3-------3-------------------------0--x------xxx----------|


Verse - 4x (*note, listen when to hammer on the high e string)
                           
e|-----3-----x-----7h10------------------------------------------|
B|-----3-----x-----8---------------------------------------------|
G|-----4-----5-----9---------------------------------------------|
D|-----5-----5-----9---------------------------------------------|
A|-----5-----3-----7---------------------------------------------|
E|-----3-----x-----x---------------------------------------------|


Chorus -  4x

e|-----3-----3h4-----0-------------------------------------------|
B|-----3-----2-------0-------------------------------------------|
G|-----0-----3-------0-------------------------------------------|
D|-----0-----0-------2-------------------------------------------|
A|-----2-----0-------2-------------------------------------------|
E|-----3-----0-------0-------------------------------------------|


Verse - 4x 
                           
e|-----3-----x-----7h10------------------------------------------|
B|-----3-----x-----8---------------------------------------------|
G|-----4-----5-----9---------------------------------------------|
D|-----5-----5-----9---------------------------------------------|
A|-----5-----3-----7---------------------------------------------|
E|-----3-----x-----x---------------------------------------------|





Bridge? - So please don't run away...

e|-----0-----0-----0-----0-----0-----0-----0-----3---------------|
B|-----1-----0-----1-----0-----1-----0-----1-----2---------------|
G|-----0-----0-----0-----0-----0-----0-----0-----3---------------|
D|-----2-----2-----2-----2-----2-----2-----2-----0---------------|
A|-----3-----2-----3-----2-----3-----2-----3-----0---------------|
E|-----0-----0-----0-----0-----0-----0-----0-----0---------------|


Verse - 4x 
                           
e|-----3-----x-----7h10------------------------------------------|
B|-----3-----x-----8---------------------------------------------|
G|-----4-----5-----9---------------------------------------------|
D|-----5-----5-----9---------------------------------------------|
A|-----5-----3-----7---------------------------------------------|
E|-----3-----x-----x---------------------------------------------|

Solo - I play the Verse during this because I cannot play the solo :(
       Anyways...play the chords for the verse until the very end,
     at which point finish with the Intro.

            
            
Suggest correction
Creating personal tab
Creating personal tab
You can edit any tab online and save it as your Personal.

You can edit, replace or remove any tab part or add personal notes – all changes will be seen only by you.

Personal tabs can be accessed anytime from any device, even offline.
Learn more »
comments
print report bad tab
3 comments total.
0 reply
joshH7 68 Jul 09, 2011 10:33 PM

alright tab, but i think i could add and change a bit to this
well the harmonics aren't at 7 there at the 12th fret for one
and i'll just give a lil part but it sounds right to me and i noticed it when playing along and tried figuring it out:
e|--3---2---0------------
B|--3---3---0------------
G|--4---4---0------------
D|--5---4---2------------
A|--5---2---2------------
E|--3---2---0------------
thts an addition for 1 part elsewise on the chorus u play the first two chords and then you go up to the bar chord on the 7th fret instead of the E minor

0 reply
chasekel15 146 Aug 01, 2013 11:27 AM

Play that Bm chord in the song, it doesnt fit. He plays a D my friend. And to the transposer... You put the wrong chord, 323 sounds horrible, it is 0232.. Also a D chord.

0 reply
joshH7 68 Jul 09, 2011 10:35 PM

well the chorus is kinda part of the rest of the song but yeah, haha, sorry its late

guest
You may want to rate the tab now too:
select rating
Wanna post a correction for this tab? Suggest correction