Oops, an error
Loading. Please wait.

Paper Chains tab

version 2
version 2

Whole song

4,943 views 1 this week
4 commentsread comments
1 2 3 4 5
x 6
add to favorites
×
Save as Personal and add changes to this tab that will be seen only by you. Learn more ›
×
You can save this tab as Personal to edit and correct it or add notes. All changes will be seen only by you. Learn more »
launch autoscroll
font size
0
reset
how to read this tab
guitar tuner
edit
Autoscroll
slow
fast
+/-
esc
set tempo
stop
Author
-----------------------------------------------------------------------
                             PAPER CHAINS - The Expendables
-----------------------------------------------------------------------
Tabbed by: bbman715888
Email: bbman715888@aol.com

Tuning: Standard

 D/A   A  Bm   G
e:-5---5---7---3
B:-7---5---7---3
G:-7---6---7---4
D:-7---7---9---5
A:-5---7---9---5
E:-5---5---7---3


Intro:
   D     A      Bm                    D     A       Bm
e|----------------------------------------------------------------|
B|-10----10-----7h8p7-----------------10----10--------------------|
G|-9h11--9-----9-----9-7---7-9-9/11---9h11--9-------7-7-7-7-------|
D|-----------------------9----------------------------------9~~---|
A|----------------------------------------------------------------|
E|----------------------------------------------------------------|

Verse 1:

D          A               Bm
   what we see it makes no sense
D            A             Bm
   why do we constantly believe?
D          A                   Bm
   we have crumbled within our borders
D                 A              Bm
   and i'm afraid help is out of reach


Chorus:

G                    A                  Bm            
   they've taken our voices and they've locked them out 
G             A                  Bm
   with paper chains i'd like to burn
G               A         Bm 
  i cannot even enjoy a sunset
G           A               Bm
   when our world is on the verge

Verse 2: (D/A A Bm)

   all this weight has got my head hung low
   a certain pride that gives the air
   i dont wanna be another disciple
   as they sit in their liars chair

Chorus: (G A Bm)

   information has been bottled up
   in the news i never heard
   i cannot even sleep under the shining stars
   when our world is on the verge

  Solo:    
   D      A      Bm                     D      A      Bm
e|--------------------------------------------9h10-----------------|
B|-10-----10-----7h8p7------------- 10----10h12-----12^14----10-12-|
G|-9h11---9-----9-----9-7---7-9-9/11-------------------------------|
D|------------------------9----------------------------------------|
A|-----------------------------------------------------------------|
E|-----------------------------------------------------------------|
    
   D      A      Bm                   D      A      Bm
e|---------------------------------------------------------------|
B|-10-----10-----7h8p7----------------10-----10------------------|
G|-9h11---9-----9-----9-7---7h9-7-----9h11---9-------7-7-7-7-----|
D|------------------------9----------------------------------9---|
A|---------------------------------------------------------------|
E|---------------------------------------------------------------|

Verse 3: (D/A A Bm)

  so i sit and watch this world go by
   just like a lonesome bird
   i cannot even concentrate on my own thoughts
   when our world is on the verge
   when our world is on the verge

            
            
Suggest correction
Creating personal tab
Creating personal tab
You can edit any tab online and save it as your Personal.

You can edit, replace or remove any tab part or add personal notes – all changes will be seen only by you.

Personal tabs can be accessed anytime from any device, even offline.
Learn more »
comments
print report bad tab
4 comments total. Showing first comments.
0 reply
bbman715888 179 Mar 21, 2010 07:54 PM

A correction is on the way for the ending of the intro

0 reply
bbman715888 179 Mar 21, 2010 07:55 PM

and the Verse 3 is another chorus

G A Bm

+1 reply
Lethargicmonkey 10 Apr 30, 2010 09:31 AM

the end of the solo should be:

D A Bm D A Bm
e|---------------------------------------------------------------|
B|-10-----10-----7h8p7----------------10-----10------------------|
G|-9h11---9-----9-----9-7---7h9--7----9h11---9-------7-7-7-7-----|
D|------------------------9----------------------------------9---|
A|---------------------------------------------------------------|
E|---------------------------------------------------------------|

just missed a note there, not that hard to figure out though. i like to improvise over the progression anyways.

great song, thanks for the tab.

guest
You may want to rate the tab now too:
select rating
Wanna post a correction for this tab? Suggest correction