Oops, an error
Loading. Please wait.

Wells tab

version 1
version 1

Whole song

Interactive

16,636 views 15 this week
5 commentsread comments
1 2 3 4 5
x 7
add to favorites
×
Save as Personal and add changes to this tab that will be seen only by you. Learn more ›
×
You can save this tab as Personal to edit and correct it or add notes. All changes will be seen only by you. Learn more »
launch autoscroll
font size
0
reset
how to read this tab
guitar tuner
edit
Autoscroll
slow
fast
+/-
esc
set tempo
stop
Author
    Intro/Verse:

e----------------------------------------------}
B----------------------------------------------}
G-------4------------7-------9-----------------}
D----------------------------------------------}
A----------------------------------------------}
E---3------3-----7----- 7---8------------------}


Chorus:

     Em		D	C	G	Em	D	C	   D

e{---7-----------5--------3-------3--------7--------5------333-------5-----}
B{---8-----------7--------5-------3--------8--------7------555------7------}
G{---9-----------7--------5-------4--------9--------7------555------7------}
D{---9-----------7--------5-------5--------9--------7------555------7------}
A{---7-----------5--------3-------5--------7--------5------355------5------}
E{---7----------------------------3------7---------------------------------}


       Em		D	C	G	Em	D	C	  G

e{---7-----------5--------3-------3--------7--------5------3--------3-------}
B{---8-----------7--------5-------3--------8--------7------5--------3-------}
G{---9-----------7--------5-------4--------9--------7------5--------4-------}
D{---9-----------7--------5-------5--------9--------7------5--------5-------}
A{---7-----------5--------3-------5--------7--------5------3--------5-------}
E{---7----------------------------3--------7------------------------3-------}

 	?	        C

e{------11111------33333---------------}
B{------33333------55555---------------}
G{------33333------55555---------------}
D{------33333------55555---------------}
A{------11111------33333---------------}
E{-------------------------------------}



Part 2:

                 G		Bm          C

e{--------33///////---7-------8----------------------------------------}
B{--------33//////----7-------8----------------------------------------}
G{--------44//////----7-------9----------[x2]--------------------------}
D{--------55//////----9------10----------------------------------------}
A{--------55//////----9------10----------------------------------------}
E{----3---33//////----7-------8----------------------------------------}


After you play that twice, play this then repeat both of these parts.


e{---77--------5------33-------------------}
B{---77--------5------33-------------------}
G{---77--------5------33-------------------}
D{-----------------------------------------}
A{-----------------------------------------}
E{-----------------------------------------}


After this and a short solo it returns to the intro
Hope this helps
smoke a blunt and jam
let me know how it is, if you want more tabs, or if its crap haha
/= slide

theres some fillins and hammerons here and there just figure them out by watching geoff 
it. Theres a short solo as well but its not hard just watch him 
http://www.youtube.com/watch?v=cRrIEMt1_LE

            
            
Suggest correction
Creating personal tab
Creating personal tab
You can edit any tab online and save it as your Personal.

You can edit, replace or remove any tab part or add personal notes – all changes will be seen only by you.

Personal tabs can be accessed anytime from any device, even offline.
Learn more »
comments
print report bad tab
5 comments total. Showing first comments.
0 reply
to1spm7 71 Jun 27, 2009 05:53 AM

correction to the tab in part 2 when you slide up the its 9 on the A and D strings not 8

Part 2:

G Bm C

e{--------33///////---7-------8----------------}
B{--------33//////----7-------8----------------}
G{--------44//////----7-------9----------[x2]---}
D{--------55//////----9------10----------------}
A{--------55//////----9------10----------------}
E{----3---33//////----7-------8----------------}

+1 reply
Cmyers713 10 Mar 23, 2010 04:21 PM

Correction to the chorus

e|----------0---|
B|-8--7--5--3---|
G|-0--0--0--0---|
D|-0--0--0--2---|
A|-7--5--3--3---|
E|--------------|

e|--------------|
B|-8--7--5--7---|
G|-0--0--0--0---|
D|-0--0--0--0---|
A|-7--5--3--5---|
E|--------------|

e|----------0---|
B|-8--7--5--3---|
G|-0--0--0--0---|
D|-0--0--0--2---|
A|-7--5--3--3---|
E|--------------|

e|----------0-----2|
B|-8--7--5--3--3--3|
G|-0--0--0--0--0--2|
D|-0--0--0--2--0--|
A|-7--5--3--3--1--|
E|----------------|

And then AFTER the chorus it goes like this...

e|----------------------------------|
B|---3-------7--8---10--10--10--8---|
G|---4-------7--9---9---9---9---9---|
D|---5--5/7--7--10--10--10--10--10--|
A|----------------------------------|
E|-3--------------------------------|

You have to play the G bass note with your thumb (watch him do it in the video at 1:55), and the 10th fret on the B string with your pinky.

e|--------------|
B|---3-------7--|
G|---4-------7--|
D|---5--5/7--7--|
A|--------------|
E|-3------------|

After you play ^^ this first part a second time, I don't know the 3 chords you play sliding down the neck, but it for sure is not the 3 that you provided.... these...

e|---77--------5------33-------------------|
B|---77--------5------33-------------------|
G|---77--------5------33-------------------|
D|-----------------------------------------|
A|-----------------------------------------|
E|-----------------------------------------|

That's all I got right now.. that would be cool if some people can help figuring it out

0 reply
to1spm7 71 Apr 01, 2010 05:54 PM

yeah its cause i used barre chords not the the style chords geoff does in the video, its just my version.. theres a reason they say COVER

guest
You may want to rate the tab now too:
select rating
Wanna post a correction for this tab? Suggest correction