Oops, an error
Loading. Please wait.

Lazy Generation bass

1,278 views 1 this week
3 commentsread comments
1 2 3 4 5
3 more votes to show rating
add to favorites
×
Save as Personal and add changes to this tab that will be seen only by you. Learn more ›
×
You can save this tab as Personal to edit and correct it or add notes. All changes will be seen only by you. Learn more »
launch autoscroll
font size
0
reset
guitar tuner
edit
Autoscroll
slow
fast
+/-
esc
set tempo
stop
F-Ups - Lazy Generation
Tabbed By: stufin135 (hellbassist1)
Email: tozz_off@hotmail.com

Tuning: Standard (E A D G)



Tuning: Standard (E A D G)

No bass in the intro

Chorus x2
G|-------------------------------------------------------||
D|-----------------0-0-0-0-0-0-0-0--0-0-0-0-0-0-0-0------||
A|-------------------------------------------------------||
E|-3-3-3-3-3-3-3-3----------------------------------3~---||


  Stand up and shout...
G|----------------------------------------------------------||
D|------------------------------------------0--0--0--0------||
A|-3-3-2-2-0-0----------------------------------------------||
E|-------------3-3--2-2-2-2-2-2-0-0-0-0-0-0-----------------||


Verse
G|------------------------------------------------------------||
D|-----------------0-0-0-0-0-0-0-0-0--0-0-0-------------------||
A|------------------------------------------------------------||
E|-3-3-3-3-3-3-3-3--------------------------3-3-3-3-----------||


G|--------------------------------------------------------||
D|-----------------0-0-0-0-0-0-0-0--0-0-0-0-0-0-0-0-------||
A|--------------------------------------------------------||
E|-3-3-3-3-3-3-3-3----------------------------------------||


Solo
G|-0-0-0-2-2-0---0--2-2-2-4-4-2-0-2--2-2-2-4-4-2-0-2-0-------||
D|-------------4---------------------------------------------||
A|-----------------------------------------------------------||
E|-----------------------------------------------------------||

            
            
Suggest correction
Creating personal tab
Creating personal tab
You can edit any tab online and save it as your Personal.

You can edit, replace or remove any tab part or add personal notes – all changes will be seen only by you.

Personal tabs can be accessed anytime from any device, even offline.
Learn more »
Give kudos to tab author, rate the tab!
1 2 3 4 5
comments
print report bad tab
3 comments total.
+1 reply
Delboy_360 10 Dec 07, 2007 07:36 AM

Some more notes r needed

-1 reply
Delboy_360 10 Dec 07, 2007 07:38 AM


Its good tho

0 reply
KGKing13 317 Jun 16, 2013 03:35 PM

Your tabs sound better when tuned a 1/2 step down, dude.

guest
You may want to rate the tab now too:
select rating
Wanna post a correction for this tab? Suggest correction