Oops, an error
Loading. Please wait.

Screw You bass

364 views 1 this week
no commentswrite comment
1 2 3 4 5
2 more votes to show rating
add to favorites
×
Save as Personal and add changes to this tab that will be seen only by you. Learn more ›
×
You can save this tab as Personal to edit and correct it or add notes. All changes will be seen only by you. Learn more »
launch autoscroll
font size
0
reset
guitar tuner
edit
Autoscroll
slow
fast
+/-
esc
set tempo
stop
Tuning: Standard (E A D G)

Intro
G|------------------------------------------------||
D|------------------------------------------------||
A|-----7777----4444----7777-----------------------||
E|-0000----7777----6666----7777-------------------||


Verse
  Another time another place...
G|-------------------------------------||
D|-------------------------------------||
A|-7777----4444----------7777----------||
E|-----7777----4444-5555-----7777------||

 I'll let you know that i wont...
G|-------------------------------------||
D|-------------------------------------||
A|-7777----4444----------7777----------||
E|-----7777----4444-5555-----7777------||

  Well now i just say i dont care...
G|-------------------------------------------------------------||
D|-------------------------------------------------------------||
A|-4444-7777----44----------------------44---------------------||
E|----------4444--77-55-77777777-4444444--77-55-7777-----------||


>>>The chorus is the same as the verse<<<


Verse 2
  You can't treat me like...
G|-------------------------------------||
D|-------------------------------------||
A|-7777----4444----------7777----------||
E|-----7777----4444-5555-----7777------||

 This is what you deserve...
G|-------------------------------------||
D|-------------------------------------||
A|-7777----4444----------7777----------||
E|-----7777----4444-5555-----7777------||

  Well now i just say i dont care...
G|-------------------------------------------------------------||
D|-------------------------------------------------------------||
A|-4444-7777----44----------------------44---------------------||
E|----------4444--77-55-77777777-4444444--77-55-7777-----------||

Chorus

Then they repeat the chorus only higher:
G|------------------------------------------------||
D|------------------------------------------------||
A|-9999----6666--------------4444-----------------||
E|-----9999----6666-7777-2222---------------------||


            
            
Suggest correction
Creating personal tab
Creating personal tab
You can edit any tab online and save it as your Personal.

You can edit, replace or remove any tab part or add personal notes – all changes will be seen only by you.

Personal tabs can be accessed anytime from any device, even offline.
Learn more »
Give kudos to tab author, rate the tab!
1 2 3 4 5
comments
print report bad tab
guest
You may want to rate the tab now too:
select rating
Wanna post a correction for this tab? Suggest correction