Oops, an error
Loading. Please wait.

The Longshoremans Lament tab

336 views 1 this week
no commentswrite comment
1 2 3 4 5
3 more votes to show rating
add to favorites
×
Save as Personal and add changes to this tab that will be seen only by you. Learn more ›
×
You can save this tab as Personal to edit and correct it or add notes. All changes will be seen only by you. Learn more »
launch autoscroll
font size
0
reset
how to read this tab
guitar tuner
edit
Autoscroll
slow
fast
+/-
esc
set tempo
stop
Author
Difficulty
-------------------------------------------------------------------------------
                             The Falcon - The Longshoreman's Lament
-------------------------------------------------------------------------------
Tabbed by: rob
Email: brainwashed_monkey@hotmail.com

Tuning:EADGBe

bass...

e|------------------------------------------|
B|------------------------------------------|
G|----------------------55---------55-------|
D|-3333333-5555555--777-55-55--777-55-55----|
A|-3333333-5555555--777-33-55--777-33-55----|
E|-1111111-3333333--555----33--555----33----|
For some reason this greasy dead season's running circles around me. 
Can you fell it now? Come on and feel it now!
I'm like a log in the fire, and shit, I don't know what to believe. 
Can you feel it mow...come on feel it now...

e|--------------------------------------------|
B|--------------------------------------------|
G|---------------555-444-222------------------|
D|-333333-555555-555-444-222-3~--555555-3~~---|
A|-333333-555555-333-222-000-3~--555555-3~~---|
E|-111111-333333-------------1~--333333-1~~---|
Black soled feet and a burlap throne. I'm gonna cry 'til Daddy comes home.
Yeah, you really never know. we really gotta go.

e|------------------------------------------|
B|------------------------------------------|
G|----------------------55---------55-------|
D|-3333333-5555555--777-55-55--777-55-55----|
A|-3333333-5555555--777-33-55--777-33-55----|
E|-1111111-3333333--555----33--555----33----|
I'm yellow stained rotten. I'm gone and forgotten. 
It's the windpipe, they cut the windpipe...
I fucked the whole crew now my skin's grey and spotting. 
Can you feel it yet? It's what we all get!

e|---------------------------------------------|
B|---------------------------------------------|
G|---------------555-444-222-------------------|
D|-333333-555555-555-444-222-3~--555555-3~~----|
A|-333333-555555-333-222-000-3~--555555-3~~----|
E|-111111-333333-------------1~--333333-1~~----|
Black soled feet and a burlap throne. I'm gonna cry 'til Daddy comes home.
Yeah, you really never know. we really gotta go.

e|-----------------------------------------------------|
B|-----------------------------------------------------|
G|------------5b6r----7b8r----7b8r----7b8r----7b8r-----|
D|-77--77--77------77------77------77------77------77--|
A|-77--77--77------77------77------77------77------77--|
E|-55--55--55------55------55------55------55------55--|

e|-------------------------|
B|-------------------------|
G|-----55---------55-------|
D|-777-55-55--777-55-55----| x4
A|-777-33-55--777-33-55----|
E|-555----33--555----33----|
he sailors and the prostitutes are dancing on the graves 
of all the noblemen and the maidens and the slaves.
The longshore haunts are empty. The sticky spots have dried.
I'm drowning in my skin from the tears I never cried.

e|-------------------|
B|-------------------|
G|-------------------|
D|-3333333-5555555---| x2
A|-3333333-5555555---|
E|-1111111-3333333---|
Fuck the "Lord be with you"s and fuck the "Bless my soul"s.
Go down to the barrel and stick it in the hole.

e|-------------------------|
B|-------------------------|
G|-----55---------55-------|
D|-777-55-55--777-55-55----|
A|-777-33-55--777-33-55----|
E|-555----33--555----33----|
Stick it in the motherfucking hole!


| /  slide up
| \  slide down
| h  hammer-on
| p  pull-off
| b  bend
| r  release
| ~  let ring
| +  harmonic
| x  Mute note
===============================================================================

            
            
Suggest correction
Creating personal tab
Creating personal tab
You can edit any tab online and save it as your Personal.

You can edit, replace or remove any tab part or add personal notes – all changes will be seen only by you.

Personal tabs can be accessed anytime from any device, even offline.
Learn more »
Give kudos to tab author, rate the tab!
1 2 3 4 5
comments
print report bad tab
guest
You may want to rate the tab now too:
select rating
Wanna post a correction for this tab? Suggest correction