Oops, an error
Loading. Please wait.
We have an official Fcpremix tab made by UG professional guitarists. Check out the tab »
×
49,785 views 57 this week
7 commentsread comments
1 2 3 4 5
x 24
add to favorites
×
Save as Personal and add changes to this tab that will be seen only by you. Learn more ›
×
You can save this tab as Personal to edit and correct it or add notes. All changes will be seen only by you. Learn more »
launch autoscroll
font size
0
reset
guitar tuner
edit
Autoscroll
slow
fast
+/-
esc
set tempo
stop
Author
Difficulty
intermediate
Gtr 1 (E A D G) - 'Bass'

Mucho Delayo
Q=175
4/4
(Gtr 1)
   Wx8
G|--------|
D|--------|
A|--------|
E|--------|

                                                          |----3----|
  E. S E Q  E E E   E. S E Q  E E E   E. S E Q  E E +E    q q q q q Q
G|-----------------|-----------------|-------------------|-------------|
D|-7--7-7----------|-----------------|-------------------|-------------|
A|--------8--8-8-8-|-7--7-7-5--5-5-5-|--------8--8-8-(8)S|=5-5-5-------|
E|-----------------|-----------------|-5--5-5------------|-------3-3-3-|

   E. S E Q  E E E   E. S E Q  E E E   E. S E Q  E E E   Q  H.
G|-----------------|-----------------|-----------------|----------|
D|-----------------|-----------------|-----------------|----------|
A|--------8--8-8-8-|-7--7-7-5--5-3-5-|--------8--8-7-8-|-5--------|
E|-5--5-5----------|-----------------|-5--5-5----------|----------|

[Verse]
                                                          |----3----|
  E. S E Q  E E E   E. S E Q  E E E   E. S E Q  E E +E    q q q q q Q
G|-----------------|-----------------|-------------------|-------------|
D|-----------------|-----------------|-7--7-7------------|-------------|
A|--------8--8-8-8-|-7--7-7-5--5-3-5-|--------8--8-8-(8)S|=5-5-5-------|
E|-5--5-5----------|-----------------|-------------------|-------3-3-3-|

   E. S E Q  E E E   E. S E Q  E E E   E. S E Q  E E E   Q  H.
G|-----------------|-----------------|-----------------|----------|
D|-----------------|-----------------|-----------------|----------|
A|--------8--8-8-8-|-7--7-7-5--5-3-5-|--------8--8-7-8-|-5--------|
E|-5--5-5----------|-----------------|-5--5-5----------|----------|

2/2
                                                  |----3----|
  E. E. E Q  Q    E. E. E Q  Q    E. E. E Q  Q    q q q q q Q
G|---------------|---------------|---------------|--------------|
D|-7--7--7-------|---------------|-7--7--7-------|--------------|
A|---------8--8--|-7--7--7-5--5--|---------8--8--|-5-5-5--------|
E|---------------|---------------|---------------|-------3-3-3--|

   E. E. E Q  Q    E. E. E Q  Q    E. E. E Q  Q    E E E E E E E E
G|---------------|---------------|---------------|-----------------|
D|---------------|---------------|---------------|-----------------|
A|---------8--8--|-7--7--7-5--5--|---------8--8--|-7-7-7-7-7-7-7-7-|
E|-5--5--5-------|---------------|-5--5--5-------|-----------------|

[Chorus]
     E Q  E E Q  E   E Q  E E E Q
G|----------------|---------------|
D|o--------2------|-2-------------|
A|o-0-0--0---0--0-|---0--0-0-0-2--|
E|----------------|---------------|

   E S S S S E Q  E S S   S S S S S S E E E Q
G|----------------------|-------------------------|
D|----------------------|-------------------------|
A|-3-3-3-3-3-3-3--3-3-3-|-3-3-3-3-3-3-3-3-5-5\----|
E|----------------------|-------------------------|

   E. E. E H      E. E. E H      E S S S S E E E Q    E S S S S E E E Q
G|--------------|--------------|--------------------|---------------------|
D|--------------|--------------|--------------------|--------------------o|
A|--------------|--------------|-3-3-3-3-3-3-3-3-3--|-5-5-5-5-5-5-5-5-5--o|
E|-1--1--1-1----|-1--1--1-1----|--------------------|---------------------|

   E. E. E H      E. E. E H      E S S S S E E E Q    E S S S S E E E Q
G|--------------|--------------|--------------------|---------------------|
D|--------------|--------------|--------------------|---------------------|
A|--------------|--------------|-3-3-3-3-3-3-3-3-3--|-5-5-5-5-5-5-5-5-5S==|
E|-1--1--1-1----|-1--1--1-1----|--------------------|---------------------|

[Pre-Verse]
(4/4)
                                                             |----3----|
   E.  S  E Q  E E E   E. S E Q  E E E   E. S E Q  E E +E    q q q q q Q
G|--------------------|-----------------|-------------------|--------------|
D|--------------------|-----------------|-------------------|--------------|
A|-12--12-12-8--8-8-8-|-7--7-7-5--5-5-5-|--------8--8-8-(8)S|=5-5-5--------|
E|--------------------|-----------------|-5--5-5------------|-------3-3-3--|

   E. S E Q  E E E   E. S E Q  E E E   E. S E Q  E E E   Q  H.
G|-----------------|-----------------|-----------------|----------|
D|-----------------|-----------------|-----------------|----------|
A|--------8--8-8-8-|-7--7-7-5--5-3-5-|--------8--8-7-7-|-5--------|
E|-5--5-5----------|-----------------|-5--5-5----------|----------|

[Verse]
                                                          |----3----|
  E. S E Q  E E E   E. S E Q  E E E   E. S E Q  E E +E    q q q q q Q
G|-----------------|-----------------|-------------------|-------------|
D|-----------------|-----------------|-7--7-7------------|-------------|
A|--------8--8-8-8-|-7--7-7-5--5-5-5-|--------8--8-8-(8)S|=5-5-5-------|
E|-5--5-5----------|-----------------|-------------------|-------3-3-3-|

   E. S E Q  E E E   E. S E Q  E E E   E. S E Q  E E E   Q  H.
G|-----------------|-----------------|-----------------|----------|
D|-----------------|-----------------|-----------------|----------|
A|--------8--8-8-8-|-7--7-7-5--5-3-5-|--------8--8-7-8-|-5--------|
E|-5--5-5----------|-----------------|-5--5-5----------|----------|

(2/2)
                                                  |----3----|
  E. E. E Q  Q    E. E. E Q  Q    E. E. E Q  Q    q q q q q Q
G|---------------|---------------|---------------|--------------|
D|-7--7--7-------|---------------|-7--7--7-------|--------------|
A|---------8--8--|-7--7--7-5--5--|---------8--8--|-5-5-5--------|
E|---------------|---------------|---------------|-------3-3-3--|

   E. E. E Q  Q    E. E. E Q  Q    E. E. E Q  Q    E E E E E E E E
G|---------------|---------------|---------------|-----------------|
D|---------------|---------------|---------------|-----------------|
A|---------8--8--|-7--7--7-5--5--|---------8--8--|-7-7-7-7-7-7-7-7-|
E|-5--5--5-------|---------------|-5--5--5-------|-----------------|

[Chorus]
     E Q  E E Q  E   E Q  E E E Q
G|----------------|---------------|
D|o--------2------|-2-------------|
A|o-0-0--0---0--0-|---0--0-0-0-2--|
E|----------------|---------------|

   E S S S S E Q  E S S   S S S S S S E E E Q
G|----------------------|-------------------------|
D|----------------------|-------------------------|
A|-3-3-3-3-3-3-3--3-3-3-|-3-3-3-3-3-3-3-3-5-5\----|
E|----------------------|-------------------------|

   E. E. E H      E. E. E H      E S S S S E E E Q    E S S S S E E E Q
G|--------------|--------------|--------------------|---------------------|
D|--------------|--------------|--------------------|--------------------o|
A|--------------|--------------|-3-3-3-3-3-3-3-3-3--|-5-5-5-5-5-5-5-5-5--o|
E|-1--1--1-1----|-1--1--1-1----|--------------------|---------------------|

[Breakdown]
  3/4        3/8       3/4
   Wx3        E E E     E S S E E E E
G|----------|-------|------------2---|
D|----------|-2-3-2-|o-0-0-0-0-3---3-|
A|----------|-------|o---------------|
E|----------|-------|----------------|

                                  3/8
   E S S E E E E   E S S E E E E   E E E   4x
G|---------------|---------------|---------|
D|-0-0-0-0---0---|-----------2---|-2-3-2--o|
A|---------3---3-|-0-0-0-0-3---3-|--------o|
E|---------------|---------------|---------|

[Breakdown 2]
    3/4                              3/8
     q  h      q  h      q  E E E E   E E E
G|----------|---------|------------|--------|
D|o-0-------|-0-------|--------2---|---3-2-o|
A|o---------|---------|-0--0-0---0-|-0-----o|
E|----------|---------|------------|--------|

    3/4                                             3/8
     E S S E E E E   E S S E E E E   E S S E E E E   E E  E
G|------------5---|---------------|---------------|----------|
D|o-0-0-0-0-3---3-|-0-0-0-0---0---|-----------2---|-2-3-(2)-o|
A|o---------------|---------3---3-|-0-0-0-0-3---3-|---------o|
E|----------------|---------------|---------------|----------|

[Breakdown 3]
(Q=167)
    4/4
      E E E  E E E  Q     E E E  E E E  Q
G|--------------0-20--|-------------0-20--|
D|o----0---19---------|----0---19---------|
A|o-18---0----0-------|-18---0----0-------|
E|--------------------|-------------------|

    E E E  E E E  Q     E E E  E E E  Q   (3x)
G|-------------0-20--|-------------0-20---|
D|----0---19---------|----0---19---------o|
A|-18---0----0-------|-18---0----0-------o|
E|-------------------|--------------------|

    E E E  E E E  Q     E E E  E E E  Q     E E E  E E E  Q    H.        Q
G|-------------0-20--|-------------0-20--|-------------0-20--|---------------|
D|----0---19---------|----0---19---------|----0---19---------|---------------|
A|-18---0----0-------|-18---0----0-------|-18---0----0-------|---------------|
E|-------------------|-------------------|-------------------|---------/10\--|

(2/2)
     E. S E E E E q    E. S E E E E q    E. S E E E E q    S E S E S E S Q.
G|------------------|-----------------|-----------------|---------------------|
D|o-----------------|-----------------|-----------------|---------x-7-x-7----o|
A|o-6--0-0-6-0-0-7--|-6--0-0-6-0-0-7--|-6--0-0-6-0-0-7--|-x-9-x-9------------o|
E|------------------|-----------------|-----------------|---------------------|

   E. S E E E E q    E. S E E E E q    E. S E E E E q    S E S E S E S Q.
G|-----------------|-----------------|-----------------|--------------------|
D|-----------------|-----------------|-----------------|---------x-7-x-7----|
A|-6--6---6-6-6-6--|-6--6---6-6-6-6--|-6--6---6-6-6-6--|-x-9-x-9------------|
E|-----------------|-----------------|-----------------|--------------------|

   E. S E E E E q    E. S E E E E q    E. S E E E E q     E  E  E  E E E E E
G|-----------------|-----------------|-----------------|---------------------|
D|-----------------|-----------------|-----------------|-10-10-10-10---------|
A|-6--6---6-6-6-6--|-6--6---6-6-6-6--|-6--6---6-6-6-6--|-------------7-7-7-7-|
E|-----------------|-----------------|-----------------|---------------------|

[Chorus/outro]
     E Q  E E Q  E   E Q  E E E Q
G|----------------|---------------|
D|o--------2------|-2-------------|
A|o-0-0--0---0--0-|---0--0-0-0-2--|
E|----------------|---------------|

   E S S S S E Q  E S S   S S S S S S E E E Q
G|----------------------|-------------------------|
D|----------------------|-------------------------|
A|-3-3-3-3-3-3-3--3-3-3-|-3-3-3-3-3-3-3-3-5-5\----|
E|----------------------|-------------------------|

   E. E. E H      E. E. E H      E S S S S E E E Q    E S S S S E E E E E
G|--------------|--------------|--------------------|----------------------|
D|--------------|--------------|--------------------|---------------------o|
A|--------------|--------------|-3-3-3-3-3-3-3-3-3--|-5-5-5-5-5-3-5-3---3-o|
E|-1--1--1-1----|-1--1--1-1----|--------------------|-----------------5----|

   E. E. E H      E. E. E H      E S S S S E E E Q    E S S S S E E E E E
G|--------------|--------------|--------------------|----------------------|
D|--------------|--------------|--------------------|----------------------|
A|--------------|--------------|-3-3-3-3-3-3-3-3-3--|-5-5-5-5-5-3-5-3---3S=|
E|-1--1--1-1----|-1--1--1-1----|--------------------|-----------------5----|

[Outro]
(4/4)
                                                              |----3----|
   E  E  E E E E E E   E E E E E E E E    E  E  E E E E E E   q q q q q Q
G|-------12-----9-----|-----7-----5-----|-------12-----9-----|--------------|
D|----10------7---7---|---5-----3---3---|----10------7---7---|--------------|
A|-12-------8-------8-|-7-----5-------5-|-12-------8-------8-|-5-5-5--------|
E|--------------------|-----------------|--------------------|-------3-3-3--|

    E  E  E E E E E E   E E E E E E E E    E  E  E E E E E E   q  H.
G|-------12-----9-----|-----7-----5-----|-------12-----9-----|-7--------*|
D|----10------7---7---|---5-----3---3---|----10------7---7---|----------*|
A|-12-------8-------8-|-7-----5-------5-|-12-------8-------8-|----------*|
E|--------------------|-----------------|--------------------|----------*|


************************************

| \    Slide down
| (n)  Ghost note
| /    Slide up
| x    Dead note
| *    Natural harmonic 

************************************

            
            
Suggest correction
Creating personal tab
Creating personal tab
You can edit any tab online and save it as your Personal.

You can edit, replace or remove any tab part or add personal notes – all changes will be seen only by you.

Personal tabs can be accessed anytime from any device, even offline.
Learn more »
comments
print report bad tab
7 comments total. Showing first comments.
+1 reply
BulletFrost 81 Jan 20, 2008 07:55 PM

pretty good

+1 reply
Rubber 239 Apr 15, 2008 07:03 AM

very good, detailed.

0 reply
SnowMan1 195 Jun 16, 2008 11:59 AM

right idea but a few noticible errors

guest
You may want to rate the tab now too:
select rating
Wanna post a correction for this tab? Suggest correction