Oops, an error
Loading. Please wait.

Reassurance Rests In The Sea ukulele

93 views 1 this week
no commentswrite comment
1 2 3 4 5
3 more votes to show rating
add to favorites
×
Save as Personal and add changes to this tab that will be seen only by you. Learn more ›
×
You can save this tab as Personal to edit and correct it or add notes. All changes will be seen only by you. Learn more »
launch autoscroll
font size
0
reset
transpose
0
reset
display chords
guitar tuner
edit
Autoscroll
slow
fast
+/-
esc
set tempo
stop
Strumming
There is no strumming pattern for this song yet. and get +5 IQ
Reassurance rests in the sea- if i put multiplication sign after the tab then that mean 
do the tab right before it other wise it means do the whole cycle that many times

intro:
e------------------------|
b-12---------------------|
g-9 ---------------------|X5 six repeated X4
d-10---------------------|
a------------------------|
e------------------------|

INTRO PART2

guitar1- plays original intro

guitar 2:
e---------------------------------------10-7-10-12b----------|
b------8-10-8--------8-10-8-------10-------------------------|
g----9---------9---9---------9---11--------------------------|
d-10------------10------------12-----------------------------|
a------------------------------------------------------------|
e------------------------------------------------------------|

second time ending
e-10-7-10-10s12-10-7------0----------|
b-------------------------10-8-------|
g------------------------------------|
d------------------------------------|
a------------------------------------|
e------------------------------------|

PREVERSE:
e-10h12-15p0-12p0-19p0-17p0-15p0-12p0-10h12-15p0-12p0-10b-------|
b-----------------------------------------------------------12b-|
g---------------------------------------------------------------|
d---------------------------------------------------------------|
a---------------------------------------------------------------|
e---------------------------------------------------------------|

last 2 times guitar2 does
C-10h12-19p0-17p0-15p0-12p0--|
b-------------------------------------|
g-------------------------------------|
d-------------------------------------|
a-------------------------------------|
e-------------------------------------|

last time
e-19p0X6-22p0X-24p0X6----|
b------------------------|
g------------------------|
d------------------------|
a------------------------|
e------------------------|

VERSE :really super fast try to do it slow at first and youll get it

Guitar1
e-12p0-10p0---10h12p0---------------------12-10---------7p0---------------------7-8-7-|
b-------------12-----------10p0-12p0-10h12-------X2then-----8p0-7h8p0-8p0-5p0---------|
g-------------------------------------------------------------------------------------|
d-------------------------------------------------------------------------------------|
a-------------------------------------------------------------------------------------|
e-------------------------------------------------------------------------------------|
CONT VERSE
e-7p0----10p0-7p0-----10h12p10-------|
b-----8p0-----------8p0--------------|
g------------------------------------|
d------------------------------------|
a------------------------------------|
e------------------------------------|

SHORT PRE CHORUS: PLay intro chord no distortion

CHORUS: listen for rythem and number of hits
e---------------------------------------------------------------|
b-8-7-----3p0-----3p0---------8-7-13--10p0-7p0-10p0-7p0---------|
g------5-------2p0----2h4p0-------------------------------------|
d-5-4-------------------------5-4-10----------------------------|
a------3--------------------------------------------------------|
d---------------------------------------------------------------|

BRIDGE-with the cool drum beat

C-12p10p0-7p5p0-5p3p0-5p3p0-5s7- 5h7p0-10p7p0-5h7p0-12-10p0--|
b---------------------------------------------------------------------|
g---------------------------------------------------------------------|
d---------------------------------------------------------------------|
a---------------------------------------------------------------------|
e---------------------------------------------------------------------|

BRIDGE 2: real short before interlude
C-5h7p0-10p7p0-5h7p0-12-10p0--|
b--------------------------------------|
g--------------------------------------|
d--------------------------------------|
a--------------------------------------|
e--------------------------------------|
Interlude:wierd

PLAy around with these Chords

e------10-12-10--12p10--------12p10--------------|
b-10--10-10-12----------12p10-------12p10--------|
g-11--11-11-11-----------------------------------|
d-12--12-12-12-----------------------------------|
a------------------------------------------------|
e------------------------------------------------|

SOLO
e-3h5p3p0--00-three times then ---00-3s5-5-5s7-7-7s12--------|
b-----------3----------------------- ------------------------|
g------------------------------------------------------------|
d------------------------------------------------------------|
a------------------------------------------------------------|
e------------------------------------------------------------|

e-10h12p10----------3 times then-10-10-10s12-12-12s15-15-----|
b------------10h12-12----------------------------------------|
g------------------------------------------------------------|
d------------------------------------------------------------|
a------------------------------------------------------------|
e------------------------------------------------------------|

e-15h17p15p0-------------    3 times then-e--15s17-17-17-17s19-19-19s22X4-20X4-19X8-|
b----------------15h17-17-              b-------------------------------------------|
g------------------------          g------------------------------------------------|
d------------------------          d------------------------------------------------|
a------------------------          a------------------------------------------------|
e------------------------          e------------------------------------------------|

            
            
Suggest correction
Creating personal tab
Creating personal tab
You can edit any tab online and save it as your Personal.

You can edit, replace or remove any tab part or add personal notes – all changes will be seen only by you.

Personal tabs can be accessed anytime from any device, even offline.
Learn more »
Give kudos to tab author, rate the tab!
1 2 3 4 5
comments
print report bad tab
guest
Wanna post a correction for this tab? Suggest correction