Oops, an error
Loading. Please wait.

Semi Fiction bass

version 1
version 1

Whole song

Interactive

3,769 views 1 this week
1 commentread comment
1 2 3 4 5
1 last vote to show rating
add to favorites
×
Save as Personal and add changes to this tab that will be seen only by you. Learn more ›
×
You can save this tab as Personal to edit and correct it or add notes. All changes will be seen only by you. Learn more »
launch autoscroll
font size
0
reset
guitar tuner
edit
Autoscroll
slow
fast
+/-
esc
set tempo
stop
Author
Difficulty
                                 Semi-fiction                                   


                                                                The Fall Of Troy
Bass



G||-------|-------|-------|-------|-------|-------|-------|-------|
D||-------|-------|-------|-------|-------|-------|-------|-------|
A||-------|-------|-------|-------|-------|-------|-------|-------|
E||-------|-------|-------|-------|-------|-------|-------|-------|


  E  E  E  E  E  E  E  E     E  E  E  E  E  E  E  E   
--------------------------|--------------------------|
--2--2--2--2--2--2--2--2--|--4--4--4--4--5--5--5--5--|
--------------------------|--------------------------|
--------------------------|--------------------------|


  E  E  E  E  E  E  E  E     E  E  E  E  E  E  E  E   
--------------------------|--------------------------|
--------------------------|--------------------------|
--3--3--3--3--3--3--3--3--|--3--3--3--3--3--5--5--5--|
--------------------------|--------------------------|


  E  E  E  E  E  E  E  E     E  E  E  E  E  E  E  E   
--------------------------|--------------------------|
--------------------------|-----------------0--0--0--|
--2--2--2--2--2--2--2--2--|--2--2--2--2--2-----------|
--------------------------|--------------------------|


  E  E  E  E  E  E  E  E     E  E  E  E  Q    Q       E  E  E  E  E  E  E  E   
--------------------------|------------------------|-----------------4--4--4--|
--------------------------|------------------------|--2--2--2--2--2-----------|
--3--3--3--3--3--3--3--3--|--3--3--3--3--0---------|--------------------------|
--------------------------|-------------------3----|--------------------------|


  E  E  E  E  E  E  E  E     E  E  E  E  E  E  E  E   
--0--0--------------------|--------------------------|
--------4--4--4--4--5--5--|--------------------------|
--------------------------|--3--3--3--3--3--3--3--3--|
--------------------------|--------------------------|


  E  E  E  E  E  E  E  E     E  E  E  E  E  E  E  E   
--------------------------|--------------------------|
--------------------------|--------------------------|
--3--3--3--3--3--5--5--5--|--2--2--2--2--2--2--2--2--|
--------------------------|--------------------------|


  E  E  E  E  E  E  E  E     E  E  E  E  E  E  E  E     E  E  E  E  Q    Q     
--------------------------|--------------------------|------------------------|
-----------------0--0--0--|--------------------------|------------------------|
--2--2--2--2--2-----------|--3--3--3--3--3--3--3--3--|--3--3--3--3--0---------|
--------------------------|--------------------------|-------------------3----|


  E  E  E  E  E  E  E  E  Q        E  E  E  E  E  E  E  E  E  E   
--------------------------------|--------------------------------|
--------------------------------|--------------------------------|
--------------------------------|-----------------------------1--|
--0--0-----0--0-----6-----6\----|--0--0-----0--0-----0--2--3-----|


  E  E  E  E  E  E  E  E  Q        E  E  E  E  E  E  E  E  E  E   
--------------------------------|--------------------------------|
--------------------------------|--------------------------------|
--------------------------------|-----------------------------1--|
--0--0-----0--0-----6-----6\----|--0--0-----0--0-----0--2--3-----|


  E  E  E  E  E  E  E  E  Q        E  E  E  E  E  E  E  E  E  E   
--------------------------------|--------------------------------|
--------------------------------|--------------------------------|
--------------------------------|-----------------------------1--|
--0--0-----0--0-----6-----6\----|--0--0-----0--0-----0--2--3-----|


  E  E  E  E  E  E  E  E  Q        E  E  E  E  E  E  E  E  E  E     H         
--------------------------------|--------------------------------|-----------|
--------------------------------|--------------------------------|-----------|
--------------------------------|-----------------------------1--|-----------|
--0--0-----0--0-----6-----6\----|--0--0-----0--0-----0--2--3-----|-----------|


  E  E  E  E  E  E  E  E     E  E  E  E  E  E  E  E   
--------------------------|--------------------------|
--2--2--2--2--2--2--2--2--|--2--4--4--4--4--5--5--5--|
--------------------------|--------------------------|
--------------------------|--------------------------|


  E  E  E  E  E  E  E  E     E  E  E  E  E  E  E  E   
--------------------------|--------------------------|
--------------------5--5--|--------------5--5--------|
--3--3--3--3--3--3--------|--5--5--3--3--------5--5--|
--------------------------|--------------------------|


  E  E  E  E  E  E  E  E     E  E  E  E  E  E  E  E   
--------------------------|--------------------------|
--------------------5--5--|--4--4--------5--5--4--4--|
--2--2--2--2--2--2--------|--------5--5--------------|
--------------------------|--------------------------|


  E  E  E  E  E  E  E  E     E  E  E  E  Q    Q       E  E  E  E  E   E  E  E   
--------------------------|------------------------|-----------------/9--9--9--|
--------------------------|------------------------|--2--2--2--2--2------------|
--3--3--3--3--3--3--3--3--|--3--3--3--3--0---------|---------------------------|
--------------------------|-------------------3----|---------------------------|


  E  E  E  E  E  E  E  E     E  E  E  E  E  E  E  E   
--------------------------|--------------------------|
--9--9--9--9--5--5--5--5--|--------------------5--5--|
--------------------------|--3--3--3--3--3--3--------|
--------------------------|--------------------------|


  E  E  E  E  E  E  E  E     E  E  E  E  E  E  E  E   
--------------------------|--------------------------|
--------------5--5--------|--------------------5--5--|
--5--5--3--3--------5--5--|--2--2--2--2--2--2--------|
--------------------------|--------------------------|


  E  E  E  E  E  E  E  E     E  E  E  E  E  E  E  E     E  E  E  E  Q    Q     
--------------------------|--------------------------|------------------------|
--4--4--------5--5--4--4--|--------------------------|------------------------|
--------5--5--------------|--3--3--3--3--3--3--3--3--|--3--3--3--3--0---------|
--------------------------|--------------------------|-------------------3----|


  E  E  E  E  E  E  E  E  Q        E  E  E  E  E  E  E  E  E  E   
--------------------------------|--------------------------------|
--------------------------------|--------------------------------|
--------------------------------|-----------------------------1--|
--0--0-----0--0-----6-----6\----|--0--0-----0--0-----0--2--3-----|


  E  E  E  E  E  E  E  E  Q        E  E  E  E  E  E  E  E  E  E   
--------------------------------|--------------------------------|
--------------------------------|--------------------------------|
--------------------------------|-----------------------------1--|
--0--0-----0--0-----6-----6\----|--0--0-----0--0-----0--2--3-----|


  E  E  E  E  E  E  E  E  Q        E  E  E  E  E  E  E  E  E  E   
--------------------------------|--------------------------------|
--------------------------------|--------------------------------|
--------------------------------|-----------------------------1--|
--0--0-----0--0-----6-----6\----|--0--0-----0--0-----0--2--3-----|


  E  E  E  E  E  E  E  E  Q        E  E  E  E  E  E  E  E  E  E           
--------------------------------|--------------------------------|-------|
--------------------------------|--------------------------------|-------|
--------------------------------|-----------------------------1--|-------|
--0--0-----0--0-----6-----6\----|--0--0-----0--0-----0--2--3-----|-------|


  E  E  E  E  E  E  E  E     E  E  E  E  E  E  E  E   
--------------------------|--------------------------|
--2--2--2--2--2--2--2--2--|--2--4--4--4--4--5--5--5--|
--------------------------|--------------------------|
--------------------------|--------------------------|


  E  E  E  E  E  E  E  E     E  E  E  E  E  E  E  E   
--------------------------|--------------------------|
--------------------5--5--|--------------5--5--------|
--3--3--3--3--3--3--------|--5--5--3--3--------5--5--|
--------------------------|--------------------------|


  E  E  E  E  E  E  E  E     E  E  E  E  E  E  E  E   
--------------------------|--------------------------|
--------------------5--5--|--4--4--------5--5--4--4--|
--2--2--2--2--2--2--------|--------5--5--------------|
--------------------------|--------------------------|


  E  E  E  E  E  E  E  E     E  E  E  E  Q    Q       E  E  E  E  E   E  E  E   
--------------------------|------------------------|-----------------/9--9--9--|
--------------------------|------------------------|--2--2--2--2--2------------|
--3--3--3--3--3--3--3--3--|--3--3--3--3--0---------|---------------------------|
--------------------------|-------------------3----|---------------------------|


  E  E  E  E  E  E  E  E     E  E  E  E  E  E  E  E   
--------------------------|--------------------------|
--9--9--9--9--5--5--5--5--|--------------------5--5--|
--------------------------|--3--3--3--3--3--3--------|
--------------------------|--------------------------|


  E  E  E  E  E  E  E  E     E  E  E  E  E  E  E  E   
--------------------------|--------------------------|
--------------5--5--------|--------------------5--5--|
--5--5--3--3--------5--5--|--2--2--2--2--2--2--------|
--------------------------|--------------------------|


  E  E  E  E  E  E  E  E     E  E  E  E  E  E  E  E   
--------------------------|--------------------------|
--4--4--------5--5--4--4--|--------------------------|
--------5--5--------------|--3--3--3--3--3--3--3--3--|
--------------------------|--------------------------|


  E  E  E  E  E  E  E  E      Q    Q    Q    E  E     S S Q    E  Q    Q     
---------------------------|-----------------------|------------------------|
---------------------------|-------2----2-------2--|--L---2-------2----2----|
--3--3--3--3--3--3--3--3\--|-----------------------|------------------------|
---------------------------|-----------------------|------------------------|


  Q    Q    Q    E  E     S S Q    E  E  E  E  E     Q    Q    Q    E  E   
-----------------------|--------------------------|-----------------------|
-----------------------|--------------------------|-------2----2-------2--|
-------3----3-------0--|--L---0-------------------|-----------------------|
-----------------------|-----------0--3--5--3--0--|-----------------------|


  S S Q    E  Q    Q       Q    Q    Q    E  E     S S Q    E  E  E  E  E   
------------------------|-----------------------|--------------------------|
--L---2-------2----2----|-----------------------|--------------------------|
------------------------|-------3----3-------0--|--L---0-------------------|
------------------------|-----------------------|-----------0--3--5--3--0--|


  Q    Q    Q    E  E     S S Q    E  Q    Q       Q    Q    Q    E  E   
-----------------------|------------------------|-----------------------|
-------2----2-------2--|--L---2-------2----2----|-----------------------|
-----------------------|------------------------|-------3----3-------0--|
-----------------------|------------------------|-----------------------|


  S S Q    E  E  E  E  E     Q    Q    Q    E  E     S S Q    E  Q    Q     
--------------------------|-----------------------|------------------------|
--------------------------|-------2----2-------2--|--L---2-------2----2----|
--L---0-------------------|-----------------------|------------------------|
-----------0--3--5--3--0--|-----------------------|------------------------|


  Q    Q    Q    E  E     S S Q    E  E  E  E  E     E  E  Q    Q    E  E   
-----------------------|--------------------------|------------------------|
-----------------------|--------------------------|--------2----2-------2--|
-------3----3-------0--|--L---0-------------------|------------------------|
-----------------------|-----------0--3--5--3--0--|-----0------------0-----|


  S S Q    E  E  E  E  E     E  E  Q    Q    E  E     S S Q    E  E  E  E  E   
--------------------0-----|------------------------|--------------------------|
--L---2----2--0--2-----2--|-----2------------------|--------------------------|
--------------------------|--------3----3----------|--------------------------|
--------------------------|------------------0--5--|--L---5----0--3--0--3--0--|


  E  E  Q    Q    E  E     S S Q    E  E  E  E  E     E  E  Q    Q    E  E   
------------------------|--------------------0-----|------------------------|
--------2----2-------2--|--L---2----2--0--2-----2--|-----2------------------|
------------------------|--------------------------|--------3----3----------|
-----0------------0-----|--------------------------|------------------0--5--|


  S S Q    E  E.  E.  E     Q    Q.     Q.        Q.     Q    Q    E   
-------------------------|---------------------|----------------------|
-------------------------|---------------------|----------------------|
-------------------------|-------5------7------|----------------------|
--L---5----0--3---3---5--|--L------------------|--8------3----3----5--|


  Q    Q.     Q.        Q.     Q    Q    E     Q    Q.     Q.      
---------------------|----------------------|---------------------|
---------------------|----------------------|---------------------|
-------5------7------|----------------------|-------3------5------|
--L------------------|--8------3----3----1--|--L------------------|


  Q.     Q    Q    E     Q    Q.     Q.        Q    E  Q    Q    E   
----------------------|---------------------|-----------------------|
----------------------|---------------------|-----------------------|
--7-------------------|-------5------7------|--3--------------------|
---------3----3----1--|--L------------------|-------0--3----3----5--|


  Q    Q.     Q.        Q.     Q    Q    E     Q    Q.     Q.      
---------------------|----------------------|---------------------|
---------------------|----------------------|---------------------|
-------5------7------|----------------------|-------5------7------|
--L------------------|--8------3----3----5--|--L------------------|


  Q.     Q    Q    E     Q    Q.     Q.        Q.     Q    Q    E   
----------------------|---------------------|----------------------|
----------------------|---------------------|----------------------|
----------------------|-------3------5------|--7-------------------|
--8------3----3----1--|--L------------------|---------3----3----1--|


  Q    Q.     Q.        Q    E  Q    Q       E.  E  H        E.   
---------------------|--------------------|----------------------|
---------------------|--------------------|----------------------|
-------5------7------|--3-----------------|----------------------|
--L------------------|-------0--3----3----|--5---5---------------|


  E.  E  H        E.     E.  E  H        E.   
----------------------|----------------------|
----------------------|----------------------|
----------------------|----------------------|
--5---5---------------|--5---5---------------|


   S S S S S S S S S S S S S S S S    E.  E  H        E.   
-----------------------------------|----------------------|
--/7-7-7-7-7-7-7-7-7-7-7-7-7-7-7-7-|----------------------|
-----------------------------------|----------------------|
-----------------------------------|--5---5---------------|


  E.  E  H        E.     E.  E  H        E.     E.  E  H        E.   
----------------------|----------------------|----------------------|
----------------------|----------------------|----------------------|
----------------------|----------------------|----------------------|
--5---5---------------|--5---5---------------|--5---5---------------|


  E.  E  H        E.     E.  E  H        E.     E.  E  H        E.   
----------------------|----------------------|----------------------|
----------------------|----------------------|----------------------|
----------------------|----------------------|----------------------|
--4---4---------------|--4---4---------------|--1---1---------------|


  E.  E  Q    S E.    E.      E.  Q      S  E.   Q     S  
---------------------------|-----------------------------|
---------------------------|-----------------------------|
---------------------------|-----------------------------|
--1---1---------1s---11\---|--5---5S-----L-17---17S------|


  E.  Q     S E  E  E  E      E.  Q      S  E.   Q     S  
---------------------------|-----------------------------|
---------------------------|-----------------------------|
---------------------------|-----------------------------|
--5---5S----L-8--8--8--8S--|--5---5S-----L-17---17S------|


  E.  Q     S Q    Q        E.  Q      S  E.   Q     S  
-------------------------|-----------------------------|
-------------------------|-----------------------------|
-------------------------|-----------------------------|
--5---5S----L-8----8S----|--4---4S-----L-16---16S------|


  E.  Q     S Q    Q        E.  E  E.  E.  E.  E     E.  E  E.  E.  E.  E   
-------------------------|------------------------|------------------------|
-------------------------|------------------------|------------------------|
-------------------------|------------------------|------------------------|
--4---4S----L-7----7S----|--1---1--L---8---8---L--|--4---4--L---9---9---9--|


  W                   W                   W                   W                 
-------------------|-------------------|-------------------|-------------------|
-------------------|-------------------|-------------------|-------------------|
-------------------|-------------------|-------------------|-------------------|
--5----------------|--L----------------|--L----------------|--L----------------|


  |----3----|                                        |----3----|              
  Q    Q    Q    H           Q.     Q    E.   E.     Q    Q    Q    H         
--------------------------|-----------------------|--------------------------|
--------------------------|-----------------------|--------------------------|
--------------------------|-----------------------|--------------------------|
--5----5----5-------------|--------------5s---7---|--4----4----4-------------|


                            |----3----|                                      
  H        E  E   E   E     Q    Q    Q    H           Q.     Q    E.   E.   
-------------------------|--------------------------|-----------------------|
-------------------------|--------------------------|-----------------------|
-------------------------|--------------------------|-----------------------|
--------------0s--1s--3--|--5----5----5-------------|--------------5s---7---|


  |----3----|                                          |----3----|              
  Q    Q    Q    H           H        E  E   E   E     Q    Q    Q    H         
--------------------------|-------------------------|--------------------------|
--------------------------|-------------------------|--------------------------|
--------------------------|-------------------------|--------------------------|
--4----4----4-------------|--------------0s--1s--3--|--5----5----5-------------|


                          |----3----|                                        
  Q.     Q    E.   E.     Q    Q    Q    H           H        E  E   E   E   
-----------------------|--------------------------|-------------------------|
-----------------------|--------------------------|-------------------------|
-----------------------|--------------------------|-------------------------|
--------------5s---7---|--4----4----4-------------|--------------0s--1s--3--|


  |----3----|                                        |----3----|              
  Q    Q    Q    H           Q.     Q    E.   E.     Q    Q    Q    H         
--------------------------|-----------------------|--------------------------|
--------------------------|-----------------------|--------------------------|
--------------------------|-----------------------|--------------------------|
--5----5----5-------------|--------------5s---7---|--4----4----4-------------|


  W                   W                   W                 
-------------------|-------------------|-------------------|
-------------------|-------------------|-------------------|
-------------------|-------------------|-------------------|
-------------------|-------------------|-------------------|


  E.  Q      S  E.   Q     S    E.  Q     S E  E  E  E    
-----------------------------|---------------------------|
-----------------------------|---------------------------|
-----------------------------|---------------------------|
--5---5S-----L-17---17S------|--5---5S----L-8--8--8--8S--|


  E.  Q      S  E.   Q     S    E.  Q     S Q    Q      
-----------------------------|-------------------------|
-----------------------------|-------------------------|
-----------------------------|-------------------------|
--5---5S-----L-17---17S------|--5---5S----L-8----8S----|


  E.  Q      S  E.   Q     S    E.  Q     S Q    Q      
-----------------------------|-------------------------|
-----------------------------|-------------------------|
-----------------------------|-------------------------|
--4---4S-----L-16---16S------|--4---4S----L-7----7S----|


                                      |----3----|     
  E.  E  E.  E.  E.  E     E.  E  E.  Q    Q    Q     
------------------------|----------------------------|
------------------------|----------------------------|
------------------------|----------------------------|
--1---1--L---8---8---L--|--4---4--L---9----9----9----|


  E.  Q      S  E.   Q     S    E.  Q     S E  E  E  E    
-----------------------------|---------------------------|
-----------------------------|---------------------------|
-----------------------------|---------------------------|
--5---5S-----L-17---17S------|--5---5S----L-8--8--8--8S--|


  E.  Q      S  E.   Q     S    E.  Q     S Q    Q      
-----------------------------|-------------------------|
-----------------------------|-------------------------|
-----------------------------|-------------------------|
--5---5S-----L-17---17S------|--5---5S----L-8----8S----|


  E.  Q      S  E.   Q     S    E.  Q     S Q    Q      
-----------------------------|-------------------------|
-----------------------------|-------------------------|
-----------------------------|-------------------------|
--4---4S-----L-16---16S------|--4---4S----L-7----7S----|


  E.  E  E.  E.  E.  E     E.  E  E.  E.  E.  E   
------------------------|------------------------|
------------------------|------------------------|
------------------------|------------------------|
--1---1--L---8---8---L--|--4---4--L---9---9---9--|


  |----3----|    |----3----|                                                   
  Q    Q    Q    Q    Q    Q       Q    Q       Q.     Q.        H.            
--------------------------------|------------|----------------|---------------|
--------------------------------|------------|----------------|---------------|
--------------------------------|------------|----------------|---------------|
--9----9----9----9----9----9----|--9----9----|--7------3------|--0------------|


                   |---------5---------|                                      
  Q.     Q.        Q    Q    Q    Q    Q       Q.     Q.        H.            
----------------|---------------------------|----------------|---------------|
----------------|---------------------------|----------------|---------------|
----------------|---------------------------|----------------|---------------|
--7------3------|--8----8----8----8----8----|--7------3------|--0------------|


                   |----3----|    |----3----|                      
  Q.     Q.        Q    Q    Q    Q    Q    Q       Q.     Q.      
----------------|--------------------------------|----------------|
----------------|--------------------------------|----------------|
----------------|--------------------------------|----------------|
--7------3------|--8----8----8----8----8----8----|--7------3------|


                                   7    7    7    7    7    7    7     
  H.              Q.     Q.        Q    Q    Q    Q    Q    Q    Q     
---------------|----------------|-------------------------------------|
---------------|----------------|-------------------------------------|
---------------|----------------|-------------------------------------|
--0------------|--7------3------|--8----8----8----8----8----8----8----|


  Q.     Q.        H.              Q.     Q.      
----------------|---------------|----------------|
----------------|---------------|----------------|
----------------|---------------|----------------|
--7------3------|--0------------|--7------3------|


  7    7    7    7    7    7    7                                      
  Q    Q    Q    Q    Q    Q    Q       Q.     Q.        H.            
-------------------------------------|----------------|---------------|
-------------------------------------|----------------|---------------|
-------------------------------------|----------------|---------------|
--8----8----8----8----8----8----8----|--7------3------|--0------------|


                   7    7    7    7    7    7    7     
  Q.     Q.        Q    Q    Q    Q    Q    Q    Q     
----------------|-------------------------------------|
----------------|-------------------------------------|
----------------|-------------------------------------|
--7------3------|--8----8----8----8----8----8----8----|


  |----3----|    |----3----|                                             
  Q    Q    Q    Q    Q    Q       W                   W                 
--------------------------------|-------------------|-------------------|
--------------------------------|-------------------|-------------------|
--------------------------------|--0----------------|--L----------------|
--8----8----8----8----8----8----|-------------------|-------------------|


  W                   W                  
-------------------|-------------------||
-------------------|-------------------||
--L----------------|--L----------------||
-------------------|-------------------||




Duration Legend
---------------
W - whole
H - half
Q - quarter
E - 8th
S - 16th
T - 32nd
X - 64th
. - note dotted
|-n-|  - n-tuplets


Tablature Legend
----------------
L - tied note
x - dead note
g - grace note
(n) - ghost note
> - accentuded note
NH - natural harmonic
AH - artificial harmonic
TH - tapped harmonic
SH - semi harmonic
PH - pitch harmonic
h - hammer on
p - pull off
b - bend
br - bendRelease
pb - preBend
pbr - preBendRelease
brb - bendReleaseBend
\n/ - tremolo bar dip
\n - tremolo bar dive
-/n - tremolo bar Release up
/n\ - tremolo bar inverted dip
/n - tremolo bar return
-\n - tremolo bar Release down
S - shift slide
s - legato slide
/ -  slide into from below or out of upwards
\ -  slide into from above or out of downwards
~ - vibrato
W - wide vibrato
tr - trill
TP - tremolo picking
T - tapping
S - slap
P - pop
< - fade in
^ - brush up
v - brush down

            
            
Suggest correction
Creating personal tab
Creating personal tab
You can edit any tab online and save it as your Personal.

You can edit, replace or remove any tab part or add personal notes – all changes will be seen only by you.

Personal tabs can be accessed anytime from any device, even offline.
Learn more »
Give kudos to tab author, rate the tab!
1 2 3 4 5
comments
print report bad tab
1 comment total.
0 reply
InsomniaJunkie 10 Mar 29, 2011 04:08 PM

Wow... Nice job exporting another file out of Guitar Pro /sarcasm

guest
You may want to rate the tab now too:
select rating
Wanna post a correction for this tab? Suggest correction