Oops, an error
Loading. Please wait.

Emmas House tab

196 views 6 this week
no commentswrite comment
1 2 3 4 5
3 more votes to show rating
add to favorites
×
Save as Personal and add changes to this tab that will be seen only by you. Learn more ›
×
You can save this tab as Personal to edit and correct it or add notes. All changes will be seen only by you. Learn more »
launch autoscroll
font size
0
reset
how to read this tab
guitar tuner
edit
Autoscroll
slow
fast
+/-
esc
set tempo
stop
[Intro]
e|-----------------------------|------------------------------|
B|---6-------6-------6-------6-|------------------------------|
G|-7-----7-7-----7-7-----7-7---|-7-8-7----8-7----8-7----8-7---|
D|-----------------------------|-------8------8------8------8-|
A|-----------------------------|------------------------------|
E|-----------------------------|------------------------------|

e|--------------------------------------------|----------------------------------------|
B|--------------------------------------------|----------------------------------------|
G|-7-7-5-5-5--7-7-5-5-5--8-7-5-5-5--8-7---7-8-|-7-7-5-5-5--7-7-5-5-5--8-7-5-5-5--8-7---|
D|--------------------------------------8-----|--------------------------------------8-|
A|--------------------------------------------|----------------------------------------|
E|--------------------------------------------|----------------------------------------|

[Verse 1]
      Early...         The...                 Early...
e|---6----5----------|---6----5----------|---6---5---------------|
B|-6----6----6-------|-6----6----6-------|-6---6-----------------|
G|-------------7-8-7-|-------------7-8-7-|----------8-7----8-7---|
D|-------------------|-------------------|--------------8------8-|
A|-------------------|-------------------|-----------------------|
E|-------------------|-------------------|-----------------------|

Early morning by the harbour
The clouds above form one sheet that's grey
Early morning by the harbour

[Bridge]                  
                          Where...
                          Where...
e|-6-6-5-5--------5-5-6-|----------------------|
B|---------6--6-6-------|-8-8-6-6-8--8-8-6-6-8-|
G|----------------------|----------------------| (x2)
D|----------------------|----------------------|
A|----------------------|----------------------|
E|----------------------|----------------------|

Where you are?
Where you now are?

[Chorus]
           You...                                        You...
           Emma's...                                     So...
e|----------------------|------------6-6-5-5---|----------------------|----------------------|
B|-----6---8------6---8-|-----6---8------------|-----6---8------6---8-|---------6----------6-|
G|-7-7---7----7-7---7---|-7-7---7------------7-|-7-7---7----7-7---7---|-8-8-7-7----8-8-7-7---| (x2)
D|----------------------|----------------------|----------------------|----------------------|
A|----------------------|----------------------|----------------------|----------------------|
E|----------------------|----------------------|----------------------|----------------------|

You have nothing to live up to
You have nothing to live down
Emma's house is empty
So why do I call it Emma's house?

[Verse 2]
e|---6----5----------|---6----5----------|---6---5---------------|
B|-6----6----6-------|-6----6----6-------|-6---6-----------------|
G|-------------7-8-7-|-------------7-8-7-|----------8-7----8-7---|
D|-------------------|-------------------|--------------8------8-|
A|-------------------|-------------------|-----------------------|
E|-------------------|-------------------|-----------------------|

Five to six that's what the time is
the cold cuts through my shirt of cotton made
Five to six that's what the time is

[Bridge]                  
                          Where...
                          Where...
e|-6-6-5-5--------5-5-6-|----------------------|
B|---------6--6-6-------|-8-8-6-6-8--8-8-6-6-8-|
G|----------------------|----------------------| (x2)
D|----------------------|----------------------|
A|----------------------|----------------------|
E|----------------------|----------------------|

Where you are?
Where you now are?

[Chorus]
           You...                                        You...
           Emma's...                                     So...
e|----------------------|------------6-6-5-5---|----------------------|----------------------|
B|-----6---8------6---8-|-----6---8------------|-----6---8------6---8-|---------6----------6-|
G|-7-7---7----7-7---7---|-7-7---7------------7-|-7-7---7----7-7---7---|-8-8-7-7----8-8-7-7---| (x2)
D|----------------------|----------------------|----------------------|----------------------|
A|----------------------|----------------------|----------------------|----------------------|
E|----------------------|----------------------|----------------------|----------------------|

You have nothing to live up to
You have nothing to live down
Emma's house is empty
So why do I call it Emma's house?

[Instrumental]
e|-----------------------------|------------------------------|
B|---6-------6-------6-------6-|------------------------------|
G|-7-----7-7-----7-7-----7-7---|-7-8-7----8-7----8-7----8-7---|
D|-----------------------------|-------8------8------8------8-|
A|-----------------------------|------------------------------|
E|-----------------------------|------------------------------|

e|--------------------------------------------|----------------------------------------|
B|--------------------------------------------|----------------------------------------|
G|-7-7-5-5-5--7-7-5-5-5--8-7-5-5-5--8-7---7-8-|-7-7-5-5-5--7-7-5-5-5--8-7-5-5-5--8-7---|
D|--------------------------------------8-----|--------------------------------------8-|
A|--------------------------------------------|----------------------------------------|
E|--------------------------------------------|----------------------------------------|

[Bridge]                  
                          Where...
                          Where...
e|-6-6-5-5--------5-5-6-|----------------------|
B|---------6--6-6-------|-8-8-6-6-8--8-8-6-6-8-|
G|----------------------|----------------------| (x2)
D|----------------------|----------------------|
A|----------------------|----------------------|
E|----------------------|----------------------|

Where you are?
Where you now are?

[Chorus]
           You...                                        You...
           Emma's...                                     So...
e|----------------------|------------6-6-5-5---|----------------------|----------------------|
B|-----6---8------6---8-|-----6---8------------|-----6---8------6---8-|---------6----------6-|
G|-7-7---7----7-7---7---|-7-7---7------------7-|-7-7---7----7-7---7---|-8-8-7-7----8-8-7-7---| (x2)
D|----------------------|----------------------|----------------------|----------------------|
A|----------------------|----------------------|----------------------|----------------------|
E|----------------------|----------------------|----------------------|----------------------|

You have nothing to live up to
You have nothing to live down
Emma's house is empty
So why do I call it Emma's house?

[Outro]
e|-------------------------|
B|-6-6-----6--6-6-----6----|
G|-----8-8--------8-8----7-|
D|-------------------------|
A|-------------------------|
E|-------------------------|

            
            
Suggest correction
Creating personal tab
Creating personal tab
You can edit any tab online and save it as your Personal.

You can edit, replace or remove any tab part or add personal notes – all changes will be seen only by you.

Personal tabs can be accessed anytime from any device, even offline.
Learn more »
Give kudos to tab author, rate the tab!
1 2 3 4 5
comments
print report bad tab
guest
You may want to rate the tab now too:
select rating
Wanna post a correction for this tab? Suggest correction