Oops, an error
Loading. Please wait.

Feeling Yourself Disintegrate bass

746 views 6 this week
no commentswrite comment
1 2 3 4 5
3 more votes to show rating
add to favorites
×
Save as Personal and add changes to this tab that will be seen only by you. Learn more ›
×
You can save this tab as Personal to edit and correct it or add notes. All changes will be seen only by you. Learn more »
launch autoscroll
font size
0
reset
guitar tuner
edit
Autoscroll
slow
fast
+/-
esc
set tempo
stop
Author
By no means the 'best' band ever, but in my eyes, by far one of the most sincere and 
heartfelt bands still writing music (excluding anything much after 2010). This song is 
particularly deep. If you've come here to learn the bass to it, you're alright in my book.
This is my first ever tab. I know I don't have the timing perfect, but you can figure 
that part out. The notes are accurate enough. Hopefully, it's not too convoluted.

<3 Flaming Lips are the shit <3

~~The Naked Bassist

.08
|----------------|----------------|----------------|----------------|
|----------------|----------------|---------9-7----|6---------------|
|7---------------|7---------------|7---------------|----------------|
|----------------|----------------|----------------|----------------|

.22
|----------------|----------------|----------------|----------------|
|----------------|----------------|----------------|----------------|
|7---------------|7---------------|-----------5h7--|----------------|
|----------------|----------------|5---------------|5-----------5h7-|

.35
|----------------|----------------|----------------|----------------|
|----------------|----------------|6---------------|6----6=---------|
|7---------------|7-------5-7-7h9-|------------5h7-|--------7-5-4-2-|
|--------------5-|----------------|----------------|----------------|

.48
|----------------|----------------|----------------|----------------|
|----------------|-----4=-4-2-1---|----------------|----------------|
|-------2--4-----|--------------4-|----------------|2---------------|
|2------------4--|2---------------|2-------------4-|----------------|

1.01
|----------------|----------------|----------------|----------------|
|----------------|----------------|----------------|----------------|
|2---------------|2---2/4--4/6-6p4|7---------------|7-----------7-7-|
|----------------|----------------|----------------|----------------|

1.14
|----------------|----------------|----------------|----------------|
|----------------|----------------|----------------|----------------|
|-----------4h7--|--------------4-|7---------------|7-------5-7=7h9-|
|5---------------|5-------4-5-7---|----------------|----------------|

1.27
|----------------|----------------|----------------|----------------|
|6---------------|----------------|----------------|-----2=-4-2-1---|
|------------2h4-|-----2=-4-2-----|----------2-4---|--------------4-|
|----------------|2-----------5-4-|2-------------4-|2---------------|

1.41
|----------------|----------------|----------------|----------------|
|----------------|----------------|----------------|----------------|
|2---------------|2---------------|2---------------|2-------2/4-4h6-|
|----------------|----------------|----------------|----------------|

1.54
|----9-9---------|----------------|----------------|--------------6-|
|----------------|------6---------|-----6-6--------|------------4---|
|7-7-------4h6-4-|7------7=-4-----|7-7-------------|----2-4/6-7-----|
|--------7-------|-------------750|----------0-2h4-|4---------------|

2.08
|----------------|----------------|----------------|--------------6-|
|----------------|-----2---2------|----------------|------------4---|
|4-4---0-2h4-4---|---4---4----4---|----2-2---------|----2-4/6-7-----|
|----------------|--------------4-|0-0-------0-2h4-|4---------------|

2.21
|----9-9---------|----------------|----------------|--------------6-|
|----------------|------6---------|----6-6---------|------------4---|
|7-7-------------|-------7=-4-----|----------------|----2-4/6-7-----|
|----------0-2h4-|4------------750|4-4-------0-2h4-|4---------------|

2.34
|----------------|---g------------|----------------|----------------|
|----------------|-----2---2------|----6-6---------|----------------|
|4-4---0-2h4-4---|---4---4----4---|----------0-2h4-|4---4-4p2-6-6p4-|
|----------------|--------------0-|4-4-------------|----------------|

2.47
|----------------|----------------|----------------|----------------|
|----------------|----------------|----------------|----------------|
|7--7---7-7-7-4=-|-4-4=--2-44-4-2-|----------------|0-2-2=-22=2-----|
|----------------|2---------------|4-2-2-22=2-0-2h4|----------------|

            
            
Suggest correction
Creating personal tab
Creating personal tab
You can edit any tab online and save it as your Personal.

You can edit, replace or remove any tab part or add personal notes – all changes will be seen only by you.

Personal tabs can be accessed anytime from any device, even offline.
Learn more »
Give kudos to tab author, rate the tab!
1 2 3 4 5
comments
print report bad tab
guest
You may want to rate the tab now too:
select rating
Wanna post a correction for this tab? Suggest correction