Oops, an error
Loading. Please wait.

Riding To Work In The Year 2025 Your Invisible Now bass

625 views 1 this week
1 commentread comment
1 2 3 4 5
2 more votes to show rating
add to favorites
×
Save as Personal and add changes to this tab that will be seen only by you. Learn more ›
×
You can save this tab as Personal to edit and correct it or add notes. All changes will be seen only by you. Learn more »
launch autoscroll
font size
0
reset
guitar tuner
edit
Autoscroll
slow
fast
+/-
esc
set tempo
stop
Author
The Flaming Lips
Bass tab
Riding to Work in the Year 2025 (Your Invisible Now)
Zaireeka

Notes: As far as I can tell, there is no bass in the verse or chorus ("you're
invisible now"). There are only three parts in the song where the bass is
clearly audible.

First section (1:12-1:36)
-Listen to disc 3 for the bass in this part

G|--------14------------------------------|--------14------------------------------|
D|----------15-12---------------14--------|----------15-12---------------14--------|
A|---------------13~--12h13p12----15-12---|---------------13~--12h13p12----15-12---|
E|-------------------------------------13-|-15-15-------------------------------13-|

G|--------14------------------------------|--------14------------------------------|
D|----------15-12---------------14--------|----------15-12---------------14--------|
A|---------------13~--12h13p12----15-12---|---------------13~--12h13p12----15-12---|
E|-15-15-------------------------------13-|-15-15-------------------------------13-|

G|--------14------------------------------|--------14------------------------------|
D|----------15-12---------------14--------|----------15-12---------------14--------|
A|---------------13~--12h13p12----15-12---|---------------13~--12h13p12----15-12---|
E|-15-15-------------------------------13-|-15-15-------------------------------13-|

G|--------14------------------------------|--------14------------------------------|
D|----------15-12---------------14--------|----------15-12---------------14--------|
A|---------------13~--12h13p12----15-12---|-12-12---------13~--12h13p12----15-12---|
E|-15-15-------------------------------13-|-------------------------------------13-|

G|----------------------------------------|
D|----------------------------------------|
A|----------------------------------------|
E|-15-15-15~~-----------------------------|

Second section (4:30-4:55)
-The bass track shifts around all four discs

G|--------14------------------------------|--------14------------------------------|
D|----------15-12---------------14--------|----------15-12---------------14--------|
A|---------------13~--12h13p12----15-12---|-12-12---------13~--12h13p12----15-12---|
E|-13-13-------------------------------13-|-------------------------------------13-|

G|--------14------------------------------|--------14------------------------------|
D|----------15-12---------------14--------|----------15-12---------------14--------|
A|-13-13---------13~--12h13p12----15-12---|-12-12---------13~--12h13p12----15-12---|
E|-------------------------------------13-|-------------------------------------13-|

G|--------14------------------------------|--------14------------------------------|
D|----------15-12---------------14--------|----------15-12---------------14--------|
A|-13-13---------13~--12h13p12----15-12---|-12-12---------13~--12h13p12----15-12---|
E|-------------------------------------13-|-------------------------------------13-|

G|--------14------------------------------|------------------10--10--12--15--14~~--|
D|----------15-12---------------14--------|----------10--10------------------------|
A|---------------13~--12h13p12----15-12---|--12--12--------------------------------|
E|-15-15-------------------------------13-|----------------------------------------|

Third section (5:06-6:30)
-Again, it shifts around all four discs

G|--------14------------------------------|
D|----------15-12---------------14--------| (repeat this until it fades out)
A|---------------13~--12h13p12----15-12---|
E|-15-15-------------------------------13-|

And there you go! 

            
            
Suggest correction
Creating personal tab
Creating personal tab
You can edit any tab online and save it as your Personal.

You can edit, replace or remove any tab part or add personal notes – all changes will be seen only by you.

Personal tabs can be accessed anytime from any device, even offline.
Learn more »
Give kudos to tab author, rate the tab!
1 2 3 4 5
comments
print report bad tab
1 comment total.
0 reply
epictacogamer 23 Jul 28, 2015 05:18 PM

Sweet tab. One of the most underrated bass riffs of all time.

guest
You may want to rate the tab now too:
select rating
Wanna post a correction for this tab? Suggest correction