Oops, an error
Loading. Please wait.

Vein Of Stars tab

version 2
version 2

Whole song

925 views 3 this week
2 commentsread comments
1 2 3 4 5
3 more votes to show rating
add to favorites
×
Save as Personal and add changes to this tab that will be seen only by you. Learn more ›
×
You can save this tab as Personal to edit and correct it or add notes. All changes will be seen only by you. Learn more »
launch autoscroll
font size
0
reset
how to read this tab
guitar tuner
edit
Autoscroll
slow
fast
+/-
esc
set tempo
stop
Author
Difficulty
intermediate
-------------------------------------------------------------------------------
                           Vein Of Stars - The Flaming Lips
-------------------------------------------------------------------------------
Tabbed by: JP Fowler
E-mail: starmut92@gmail.com
Tuning: EADGBe
Album: At War With The Mystics

Chord chart for song:

   Bb   Gm   Dm   F    A
e|-6----3----1----1----5-|
B|-6----3----3----1----5-|
G|-7----3----2----2----6-|
D|-8----5----0----3----7-|
A|-8----5----x----3----7-|
E|-6----3----x----1----5-|


[Intro]

Bb F Bb F


[Verse I]

F   Bb                 F        Bb
Who knows, maybe there isn't, a vein of stars calling

       F        Bb         F               Bb
out my name. No glow from above our heads, nothing there

                         F
to send you down on your knees.

Gm
Mmmmmmmmmm...

    Gm     Dm        Gm      Dm
  4/4.......
e|-------6-13-8/10-|-------6-13-8-8\-|
B|-----8-----------|-----8-----------|
G|---7-------------|---7-------------|
D|-8---------------|-8---------------|
A|-----------------|-----------------|
E|-----------------|-----------------|


[Verse II]

Dm     Bb                       F      Bb
Twenty-five, twenty-six, twenty-seven, off in the future

                      F                Bb
maybe there ain't no heaven. It's just you and me and maybe

             F                  Bb
it's just as well. And if there ain't no heaven, maybe

               F
there ain't no hell.


[Interlude]

A Dm A Dm A Dm

A Bb C Bb F

Bb F Bb F Bb F

[Verse III]

F   Bb                 F        Bb
Who knows, maybe there isn't, a vein of stars calling

       F         Bb                 F       Bb
out my name. Who knows, maybe there isn't a vein of stars

               F
calling out my name.

Guitar 1:
  4/4........
e|----------------------|
B|-10/11--11/10-10--10b-|
G|----------------------|
D|----------------------|
A|----------------------|
E|----------------------|


[Outro]

**3 Guitars; with Guitar 3 strumming.


F   Gm   Dm    Gm   Dm    Gm   Dm    Gm   Dm
Who knows? Who knows? Who knows? Who knows?

               Gm  Dm    Gm   Dm    Gm   Dm Gm             Dm
Calling out my name, who knows? Who knows?  Calling out my name.


Guitar 1:
   Gm      Dm          Gm      Dm  Gm      Dm          Gm       Dm    Gm        Dm
  4/4.......       Who knows......Who knows....                   Calling out my name....
e|-------6-13-8/10-10|-------6-5-|-------6-13-8/10-10-|-------6-5\1-|---------8-10-|
B|-----8-------------|-----8-----|-----8--------------|-----8-------|-6/10/11------|
G|---7---------------|---7-------|---7----------------|---7---------|--------------|
D|-8-----------------|-8---------|-8------------------|-8-----------|--------------|
A|-------------------|-----------|--------------------|-------------|--------------|
E|-------------------|-----------|--------------------|-------------|--------------|

   Gm        Dm    Gm       Dm
  Who knows.......
e|---------8-10-|------------------|
B|-6/10/11------|----6-8/11-10\6/8-|
G|--------------|--7---------------|
D|--------------|------------------|
A|--------------|------------------|
E|--------------|------------------|


Guitar 2:
  Gm               Dm           Gm            Dm     Gm              Dm
  4/4.......                ...Who knows...........Who knows.......
e|----------------------------|--------------------|--------------------------|
B|---------------6-6----------|--------------------|---------------6-6--------|
G|-------------------5-5/7-5/7|--------------------|-----------8-8-----5--7-5-|
D|-------5-5-8-8--------------|-------5-5-8-8-7--7-|-------5-5----------------|
A|---5-5----------------------|---5-5--------------|---5-5--------------------|
E|-6--------------------------|-6------------------|-6------------------------|

  Gm             Dm         Gm       Dm           Gm      Dm
  Who knows........   Calling out my name....  Who knows......
e|------------------------|---------------------|------------------|
B|------------------------|---------------------|------------------|
G|------------------------|--------5-7-7-7--7-7-|-------5-7-7-7--7-|
D|-------5-5-8-8-7--------|-5-7-8---------------|-5-7-8------------|
A|---5-5-----------8--8-8-|---------------------|------------------|
E|-6----------------------|---------------------|------------------|

  Gm             Dm              Gm              Dm
  Who knows........             Calling out my name.....
e|-----------------------------|---------------------|
B|---------------6-6-----------|---------------------|
G|-------------------5-5-7-7-5-|---------------------|
D|-------5-5-8-8---------------|-------5-5-8-8-8-7---|
A|---5-5-----------------------|---5-5-------------8-|
E|-6---------------------------|-6-------------------|

************************************

| /   slide up
| \   slide down

************************************

            
            
Suggest correction
Creating personal tab
Creating personal tab
You can edit any tab online and save it as your Personal.

You can edit, replace or remove any tab part or add personal notes – all changes will be seen only by you.

Personal tabs can be accessed anytime from any device, even offline.
Learn more »
Give kudos to tab author, rate the tab!
1 2 3 4 5
comments
print report bad tab
2 comments total.
0 reply
mastodonspectre 10 Nov 04, 2015 06:21 PM

Fuck yeah!

0 reply
starmut 643 Nov 04, 2015 06:34 PM

lol thanks

guest
You may want to rate the tab now too:
select rating
Wanna post a correction for this tab? Suggest correction