Oops, an error
Loading. Please wait.

Pre-Packaged Childhood bass

307 views 1 this week
no commentswrite comment
1 2 3 4 5
1 last vote to show rating
add to favorites
×
Save as Personal and add changes to this tab that will be seen only by you. Learn more ›
×
You can save this tab as Personal to edit and correct it or add notes. All changes will be seen only by you. Learn more »
launch autoscroll
font size
0
reset
guitar tuner
edit
Autoscroll
slow
fast
+/-
esc
set tempo
stop
Author
The Flaming Tsunamis - Pre-Packaged Childhood
Awesome band, awesome song, and some pretty sexy bass lines here too. Confident 
with all of it except the pre-chorus is a little iffy.


Intro/Verse 1 Riff
|----------------------------------|-----------------------x2| 
|-----10-----10-----10-11-10---10--|----5----5-----5-6-5-----|
|-8-11---8-11---8-11---------11----|-3-6--3-6--3-6-------6---|
|----------------------------------|-------------------------|

Pre-chorus
|---------------------x2|---|
|----4----4----5----5---|---|
|-3-5--3-5--4-6--4-6----|-3~|
|-----------------------|---|

Chorus              Then this riff.
|--------------x4-|---------------------------------------x2-|
|-----------------|-333-----333-----333-----333----111-------|
|-3333333-666-888-|-----434-----434-----434-----33-----43----|
|-----------------|------------------------------------------|

Bridge
|------------------------|-----------------------------------|
|-10-----------10--------|----5-6-6-5---10-------------------|
|---11-10-88-10--10-8-66-|-3-6--------6---10-88~-------------|
|------------------------|-----------------------------------|

            
            
Suggest correction
Creating personal tab
Creating personal tab
You can edit any tab online and save it as your Personal.

You can edit, replace or remove any tab part or add personal notes – all changes will be seen only by you.

Personal tabs can be accessed anytime from any device, even offline.
Learn more »
Give kudos to tab author, rate the tab!
1 2 3 4 5
comments
print report bad tab
guest
You may want to rate the tab now too:
select rating
Wanna post a correction for this tab? Suggest correction