Oops, an error
Loading. Please wait.

Got You Where I Want You tab

version 3
version 3

Whole song

Interactive

20,376 views 6 this week
1 commentread comment
1 2 3 4 5
x 9
add to favorites
×
Save as Personal and add changes to this tab that will be seen only by you. Learn more ›
×
You can save this tab as Personal to edit and correct it or add notes. All changes will be seen only by you. Learn more »
launch autoscroll
font size
0
reset
how to read this tab
guitar tuner
backing track
0:00
0:00
edit
Autoscroll
slow
fast
+/-
esc
set tempo
stop
Author
#----------------------------------PLEASE NOTE--------------------------------#
#This file is the author's own work and represents their interpretation of the#
#song. You may only use this file for private study, scholarship, or research.#
#-----------------------------------------------------------------------------#
#-- File created with Instab - http://www.pconline.com/~smcarey/instab.html --#
#-----------------------------------------------------------------------------#

Author/Artist: The Flys
Title: Got You Where I Want You


Bend notes up.

Tuning (eb A D G B E), Down ~ 10% (eb, D) Down ~ 20%
Live Standard Tuning, Down ~ 10% (eb, D) Down ~ 20%
Key: (C + G#)


----|------------------------------------------------------|
----|------------------------------------------------------|
----|------------------------------------------------------|
----|-------------------------4/6-6--6----6----6----6---6--|
----|----6--5--6-----6--5--6------------6---6-----6---6----|
----|-0-----------0----------------------------------------|
    
    
 Intro/Verse  




----|--6---4--|
----|--4---4--|
----|---------|
----|--8---6--|
----|---------|
----|---------|


 Chorus 




----|---------|
----|---------|
----|---------|
----|---------|
----|--6---6--|
----|--7---5--|


 Interlude 

            
            
Suggest correction
Creating personal tab
Creating personal tab
You can edit any tab online and save it as your Personal.

You can edit, replace or remove any tab part or add personal notes – all changes will be seen only by you.

Personal tabs can be accessed anytime from any device, even offline.
Learn more »
comments
print report bad tab
1 comment total.
0 reply
Deorathx 10 Jun 22, 2009 05:38 PM

it is missing a few sections, I'm trying to listen and tab it out, overall though this tab has a great foundation, and is close. 3½.

guest
You may want to rate the tab now too:
select rating
Wanna post a correction for this tab? Suggest correction