Oops, an error
Loading. Please wait.

Some Things Never Change bass

487 views 3 this week
no commentswrite comment
1 2 3 4 5
2 more votes to show rating
add to favorites
×
Save as Personal and add changes to this tab that will be seen only by you. Learn more ›
×
You can save this tab as Personal to edit and correct it or add notes. All changes will be seen only by you. Learn more »
launch autoscroll
font size
0
reset
guitar tuner
edit
Autoscroll
slow
fast
+/-
esc
set tempo
stop
Author
some things never change - the forecast

standard tuning

i'm 95 percent sure this is right lol.
nott a bitie sure about the bit at the end of the chorus tho,
but everything else should be rightt. :]


here's my email -
x_amiee_bee_x@hotmail.co.uk

;D


bass doesn't start till 1.22

verse :

G|-------------------------------------------------------------------------------|
D|-------------------------------------------------------------------------------|
A|---------------------------------------0>3-3333--0>3-33-33--0>3-3333-0>3-33-33-|
E|---15\----0>3333-0>3333-0>3333-0>3333------------------------------------------|

G|-------------------------------------------------------------------------------|
D|-------------------------------------------------------------------------------|  x4
A|---------------------------------0>3-3333--0>3-33-33--0>3-3333-0>3-33-33-------|
E|----0>3333-0>3333-0>3333-0>3333------------------------------------------------|


bridge :

G|-------------------------------------------------------------------------------|
D|-------------------------------------------------------------------------------|  x2
A|----5~--------------------3~---------------------------------------------------|
E|---------------0~--------------------------------------------------------------|


chorus: (not sure about the high bit at the end)

G|-------------------------------------------------------------------------------|
D|-------------------------------------------------------------------------------|
A|-------------------33333333----00000000-----3333/15151515\---------------------|
E|---15\--33333333---------------------------------------------------------------|

G|-------------------------------------------------------------------------------|
D|-------------------------------------------------------------------------------|
A|---------------33333333----00000000-----33333333/1515151515--------------------|
E|----33333333-------------------------------------------------------------------|


verse :

G|-------------------------------------------------------------------------------|
D|-------------------------------------------------------------------------------|  x2
A|---------------------------------0>3-3333--0>3-33-33--0>3-3333-0>3-33-33-------|
E|----0>3333-0>3333-0>3333-0>3333------------------------------------------------|

bridge :

G|-------------------------------------------------------------------------------|
D|-------------------------------------------------------------------------------|  x2
A|------55555555-----------3333333333333333--------------------------------------|
E|---------------00000000--------------------------------------------------------|


chorus :

G|-------------------------------------------------------------------------------|
D|-------------------------------------------------------------------------------|
A|---------------33333333----00000000-----3333/15151515\-------------------------|
E|-----33333333------------------------------------------------------------------|

G|-------------------------------------------------------------------------------|
D|-------------------------------------------------------------------------------|
A|---------------33333333----00000000-----33333333/1515151515--------------------|
E|----33333333-------------------------------------------------------------------|

G|--------------------------------------------------------------------------------|
D|--------------------------------------------------------------------------------|
A|-------------------33333333----00000000-----3333/15151515-----------------------|
E|---15\--33333333----------------------------------------------------------------|

G|-------------------------------------------------------------------------------|
D|-------------------------------------------------------------------------------|
A|-------------------------------------------------------------------------------|
E|----\3~------------------------------------------------------------------------|


\ = slide down

/ = slide up

> = pull on

            
            
Suggest correction
Creating personal tab
Creating personal tab
You can edit any tab online and save it as your Personal.

You can edit, replace or remove any tab part or add personal notes – all changes will be seen only by you.

Personal tabs can be accessed anytime from any device, even offline.
Learn more »
Give kudos to tab author, rate the tab!
1 2 3 4 5
comments
print report bad tab
guest
You may want to rate the tab now too:
select rating
Wanna post a correction for this tab? Suggest correction