Oops, an error
Loading. Please wait.

A Little Loving bass

711 views 6 this week
no commentswrite comment
1 2 3 4 5
2 more votes to show rating
add to favorites
×
Save as Personal and add changes to this tab that will be seen only by you. Learn more ›
×
You can save this tab as Personal to edit and correct it or add notes. All changes will be seen only by you. Learn more »
launch autoscroll
font size
0
reset
guitar tuner
edit
Autoscroll
slow
fast
+/-
esc
set tempo
stop
Author
A Little Loving
The Fourmost
http://www.thefourmost.co.uk/
Written by Russ Alquist; released as a single with "Waitin' For You" as the 
B-side

Refrain:
G|------ ------ ------ ------|------ ------ ------ ------|
D|---------------------------|---------------------6-----|
A|---------------------------|-------6------9----------9-|
E|---------------------------|7--------------------------|
         A      litt - le     lo    -    ving,  a  little


G|------ ------ ------ ------|------ ------ ------ ------|
D|---------------------6-----|---------------------------|
A|-------6------9----------9-|-------4-------------6-----|
E|7--------------------------|5-------------7------------|
  lo    -    ving      goes a long,  long,  long,  long


G|------ ------ ------ 6-----|------ ------ ------ ------|
D|-------6------9----------9-|---------------------6-----|
A|7--------------------------|-------6------9----------9-|
E|---------------------------|7--------------------------|
  way.              A  little lo    -    ving,  a  little


G|------ ------ ------ ------|------ ------ ------ ------|
D|---------------------6-----|---------------------------|
A|-------6------9------------|9------9------9------9-----|
E|7--------------------------|---------------------------|
  lo    -    ving      goes a long,  long,  long,  long


G|------ ------ ------ ------|------ ------ ------ ------|
D|9------9------9------9-----|9--------------------------|
A|---------------------------|---------------------------|
E|---------------------------|---------------------------|
  way.                                          I  catch a

Verse:
G|------ ------ ------ ------|------ ------ ------ ------|
D|---------------------------|---------------------------|
A|7----------7---------------|7----------7---------------|
E|--------------7------------|--------------7------------|
  train  tonight    about eight,                and I'll be


G|------ ------ ------ ------|------ ------ ------ ------|
D|---------------------------|9----------9---------9-----|
A|7----------7---------7-----|--------------9------------|
E|--------------7------------|---------------------------|
  gone   for    ma- ny a   day,                 So give me


G|------ ------ ------ ------|------ ------ 6----- ------|
D|7-------------6------------|---------------------------|
A|---------------------------|7------7-------------------|
E|---------------------------|---------------------------|
  some - thing  to     re  -  mem   -    ber,   a  little


G|------ ------ ------ ------|------ ------ ------ ------|
D|---------------------------|9--------------------9-----|
A|9--------------------9-----|--------------9------------|
E|--------------9------------|---------------------------|
  loving     goes   a  long   way.              I'm gonna

Verse:
G|------ ------ ------ ------|------ ------ ------ ------|
D|---------------------------|---------------------------|
A|7----------7---------------|7----------7---------------|
E|--------------7------------|--------------7------------|
  miss   you    after I'm gone,                 I'm gonna


G|------ ------ ------ ------|------ ------ ------ ------|
D|---------------------------|9----------9---------9-----|
A|7----------7---------7-----|--------------9------------|
E|--------------7------------|---------------------------|
  wish   you    asked me to stay,               So won't you


G|------ ------ ------ ------|------ ------ 6----- 6-----|
D|7----------7--6------6-----|---------------------------|
A|---------------------------|7--------------------------|
E|---------------------------|---------------------------|
  give   me     one    more   kiss,      dear,  a  little


G|------ ------ ------ ------|------ ------ ------ ------|
D|---------------------------|---------------------------|
A|9----------9---------------|7--------------------6-----|
E|--------------7------7-----|--------------7------------|
  loving     goes   a  long   way.              A  little

Refrain:
G|------ ------ ------ ------|------ ------ ------ ------|
D|---------------------------|---------------------------|
A|-------6------9------6-----|-------6------9------6-----|
E|7--------------------------|7--------------------------|
  lo    -    ving,  a  little lo    -    ving      goes a


G|------ ------ ------ ------|------ ------ ------ ------|
D|---------------------------|-------6------9------6-----|
A|-------4/------------6-----|7--------------------------|
E|5-------------7------------|---------------------------|
  long,  long,  long,  long   way.              A  little


G|------ ------ ------ ------|------ ------ ------ ------|
D|---------------------------|---------------------------|
A|-------6------9------6-----|-------6------9------6-----|
E|7--------------------------|7--------------------------|
  lo    -    ving,  a  little lo    -    ving      goes a


G|------ ------ ------ ------|------ ------ ------ ------|
D|---------------------------|9------9------9------9-----|
A|9------9------9------9-----|---------------------------|
E|---------------------------|---------------------------|
  long,  long,  long,  long   way.


G|------ ------ ------ ------|
D|9--------------------------|
A|---------------------------|
E|---------------------------|
                    I  don't know

Verse:
G|------ ------ ------ ------|------ ------ ------ ------|
D|---------------------------|---------------------------|
A|7----------7---------------|7----------7---------------|
E|--------------7----------7-|--------------7------------|
  where  I      heard it before,                I  on- ly


G|------ ------ ------ ------|------ ------ ------ ------|
D|---------------------------|9----------9---------9-----|
A|7----------7---------7-----|--------------9------------|
E|--------------7------------|---------------------------|
  know   it's   true   they say,                So give me
                    what

G|------ ------ ------ ------|------ ------ 6----- 6-----|
D|7------7------6------6-----|---------------------------|
A|---------------------------|7------7-------------------|
E|---------------------------|---------------------------|
  some - thing  to     re  -  mem   -    ber,   a  little


G|------ ------ ------ ------|------ ------ ------ ------|
D|---------------------------|---------------------------|
A|9----------9---------------|7--------------------------|
E|--------------7------7-----|-------7------9------10----|
  loving     goes   a  long   way.

Verse (solo):
G|------ ------ ------ ------|------ ------ ------ ------|
D|---------------------------|2----------2---------------|
A|7------7-------------------|--------------2----------2-|
E|--------------7------3---0-|---------------------3-----|



G|------ ------ ------ ----2-|4----- ----4- ------ 4-----|
D|2----------2---------2-----|--------------4------------|
A|--------------2------------|---------------------------|
E|---------------------------|---------------------------|



G|------ ------ ------ ------|------ ------ 6----- 6-----|
D|7-------------6------------|---------------------------|
A|---------------------9-----|7------7-------------------|
E|---------------------------|---------------------------|



G|------ ------ ------ ------|------ ------ ------ ------|
D|--------------9------9-----|---------------------------|
A|9------9-------------------|7--------------------------|
E|---------------------------|---------------------------|
                                     A      litt - le

Refrain:
G|------ ------ ------ ------|------ ------ ------ ------|
D|---------------------------|---------------------------|
A|-------6------9------6-----|-------6------9------6-----|
E|7--------------------------|7--------------------------|
  lo    -    ving,  a  little lo    -    ving      goes a


G|------ ------ ------ ------|------ ------ ------ ------|
D|---------------------------|-------6------9------6-----|
A|-------4-------------6-----|7------------------------7-|
E|5-------------7------------|---------------------------|
  long,  long,  long,  long   way.              A  little


G|------ ------ ------ ------|------ ------ ------ ------|
D|---------------------------|---------------------------|
A|-------6------9------6-----|-------6------9------6-----|
E|7--------------------------|7--------------------------|
  lo    -    ving,  a  little lo    -    ving      goes a


G|------ ------ ------ ------|------ ------ ------ ------|
D|---------------------------|9------9------9------9-----|
A|9------9------9------9-----|---------------------------|
E|---------------------------|---------------------------|
  long,  long,  long,  long   way.


G|------ ------ ------ ------|
D|9--------------------------|
A|---------------------------|
E|---------------------------|
                    I  don't know

Verse:
G|------ ------ ------ ------|------ ------ ------ ------|
D|---------------------------|---------------------------|
A|7------7-----------------6-|7----------7---------6-----|
E|--------------7------------|--------------7------------|
  where  I      heard it before,                I  on- ly


G|------ ------ ------ ------|------ ------ ------ ------|
D|---------------------------|9--------------------9-----|
A|7--------------------7-----|--------------9------------|
E|--------------7------------|---------------------------|
  know   it's   true   they say,                So give me
                    what

G|------ ------ ------ ------|------ ------ 6----- 6-----|
D|7------7------6------------|---------------------------|
A|---------------------------|7------7-------------------|
E|---------------------------|---------------------------|
  some - thing  to     re  -  mem   -    ber,   a  little


G|------ ------ ------ ------|------ ------ ------ ------|
D|--------------9------9-----|---------------------------|
A|9------9-------------------|7--------------------7-----|
E|---------------------------|--------------7------------|
  loving     goes   a  long   way.              So give me

Outro:
G|------ ------ ------ ------|------ ------ 6----- ------|
D|7-------------6------6-----|---------------------------|
A|---------------------------|7------7-------------------|
E|---------------------------|---------------------------|
  some - thing  to     re  -  mem   -    ber,


G|-------------------------------------------------------|
D|-------------------------------------------------------|
A|-------------------------------------------------------|
E|-------------------------------------------------------|
         a little loving,                   a little loving,
                     yeah, a little loving,

G|-------------------------------------------------------------|
D|-------------------------------------------------------------|
A|-------------------------------------------------------------|
E|-------------------------------------------------------------|
             goes          it on                      long


G|------ ------ ------ ------|------ ------ ------ ------|
D|---------------------------|-------6------9------6-----|
A|---------------------------|7--------------------------|
E|---------------------------|---------------------------|
                              way!


G|------ ------ ------ ------|------ ------ ------ ------|
D|-------7------10-----7-----|-------6------9------6-----|
A|8--------------------------|7--------------------------|
E|---------------------------|---------------------------|



G|------ ------ ------ ------|------ ------ ------ ------|
D|---------------------------|---------------------------|
A|7--------------------------|---------------------------|
E|---------------------------|---------------------------|

Please e-mail me for any corrections, or write a comment.

            
            
Suggest correction
Creating personal tab
Creating personal tab
You can edit any tab online and save it as your Personal.

You can edit, replace or remove any tab part or add personal notes – all changes will be seen only by you.

Personal tabs can be accessed anytime from any device, even offline.
Learn more »
Give kudos to tab author, rate the tab!
1 2 3 4 5
comments
print report bad tab
guest
You may want to rate the tab now too:
select rating
Wanna post a correction for this tab? Suggest correction