Oops, an error
Loading. Please wait.

Strongest Man Alive tab

version 1
version 1

Whole song

3,351 views 9 this week
no commentswrite comment
1 2 3 4 5
x 5
add to favorites
×
Save as Personal and add changes to this tab that will be seen only by you. Learn more ›
×
You can save this tab as Personal to edit and correct it or add notes. All changes will be seen only by you. Learn more »
launch autoscroll
font size
0
reset
how to read this tab
guitar tuner
edit
Autoscroll
slow
fast
+/-
esc
set tempo
stop
Author
Difficulty
-------------------------------------------------------------------------------
                             Strongest Man Alive - Franklin Electric
-------------------------------------------------------------------------------
Tabbed by: Eddie25g
E-mail: ejgold25@verizon.net

Tuning: Standard


Chords:

    F  |  C  |  Em |  Am
e|-----|-----|-----|-----|
B|-----|--5--|-----|--1--|
G|--2--|-----|-----|--2--|
D|-----|-----|--2--|--2--|
A|-----|--3--|--2--|-----|
E|--1--|-----|-----|-----|

Finger-picking Pattern:

Into:

    F                     F                      F                     F
e|------------------------------------------------------------------------------------------|
B|--------------------------------------------------------------------------------0---------|
G|----2-------2--------2------2-------2-------2-----2-------2-------2-----2---------2---2---|
D|------0-------0---------------0-------0-------------0-------0-------------0---------0-----|
A|------------------------------------------------------------------------------------------|
E|-1-------1-------1------1--------1-------1-----1-------1-------1-----1-------1------------|

Song Progressions:

    F                    
e|-------------------------|
B|-------------------------|
G|----2-------2--------2---| x6
D|------0-------0----------|
A|-------------------------|
E|-1-------1-------1-------|

    C       Em     Am     Em     F (back to finger-picking)
e|--------------------------------------|
B|--/5------0------1--------------------|
G|------------------------0------2------|
D|-----------------2--------------------|
A|--/3-----/2-------------2-------------|
E|-------------------------------1------|

    F                                C                   
e|-------------------------|     e|-----------------------------------------|
B|-------------------------|     B|----5------5-----------0------0----------|
G|----2-------2--------2---| x4  G|------0------0-----------0------0--------|
D|------0-------0----------|     D|-----------------------------------------|
A|-------------------------|     A|-3------3------3---\2------2------2------|
E|-1-------1-------1-------|     E|-----------------------------------------|


    C       Em     Am     Em     F (back to finger-picking)
e|--------------------------------------|
B|--/5------0------1--------------------|
G|------------------------0------2------|
D|-----------------2--------------------|
A|--/3-----\2-------------2-------------|
E|-------------------------------1------|

Time for the song!!

Chords:

F
F
Honest man

One more shot
           C Em Am  Em     F
Who's been free all the time
F                         C   Em
Watch him fallin' off the top
         C        Em  Am    Em         F
Cause he believes his heart might stop


F                               C  Em
Ain't no worry that's worth his soul
F
Ain't no days come by 
F                                                      C
that he don't count the times that he told himself let go 
Em Am     Em  F                  
He thinks too much to himself

F
He ain't superstitious
       C                      Em
But he's making a wish tonight
F
He knows what it means to see
C                    Em
Heaven inside of his mind
       F
Oh the hell with it he's drinking again
     C Em Am Em F
Like breeeeaaaathing

    C  Em  Am    Em     F
Poison air mixed up his feelings
F
He's a little bit weiry
F
And a little bit worried
F
He used to feel like he's the strongest man alive


       C Em Am Em  F
And now heeeee is something
F
Such a lonely sound from far
        C Em Am Em F
Can you feeeeeeeel someone?
F
Creeping up behind you and your to scared to
C   Em  Am  Em    F
See if you might know them
F                                       C
Every strong man get's scared sometimes


F

F
Show me something real
F
Show me just how I can let go
       C     Em    Am Em  F
Let me light the way for you
F                                        C Em F
When the candle dies and fear takes over you
              C   Em Am    Em   F
Tell me would you be there once more
F
Like you're the last man standing and the first to know that
C      Em   Am Em   F
You've been so confused
F
And been let to believe that
C   Em  Am Em      F
You are in your mind
             C   Em Am   Em  F
And that you never  told the truth

         C Em Am Em  F
Now it's haaauunting yooooouuuuu
           C
You're the strongest man
           C    Em   Am  Em  F
You're the strongest man alive

Outro:
F (Variation of into finger-picking)


************************************

| /   slide up
| \   slide down
| h   hammer-on
| p   pull-off
| ~   vibrato
| +   harmonic
| x   Mute note
| b   Bend
| pb  Pre-bend
| br  Bend release
| pbr Pre-bend release
| brb Bend release bend

************************************

            
            
Suggest correction
Creating personal tab
Creating personal tab
You can edit any tab online and save it as your Personal.

You can edit, replace or remove any tab part or add personal notes – all changes will be seen only by you.

Personal tabs can be accessed anytime from any device, even offline.
Learn more »
comments
print report bad tab
guest
You may want to rate the tab now too:
select rating
Wanna post a correction for this tab? Suggest correction