Oops, an error
Loading. Please wait.

Chelsea Dagger bass

version 6
version 6

Interactive

3,728 views 39 this week
no commentswrite comment
1 2 3 4 5
x 7
add to favorites
×
Save as Personal and add changes to this tab that will be seen only by you. Learn more ›
×
You can save this tab as Personal to edit and correct it or add notes. All changes will be seen only by you. Learn more »
launch autoscroll
font size
0
reset
guitar tuner
edit
Autoscroll
slow
fast
+/-
esc
set tempo
stop
Author
Difficulty
-------------------------------------------------------------------------------
                             CHELSEA DAGGER - The Fratellis
-------------------------------------------------------------------------------
Tabbed by: theoisadoor
E-mail: theoisadoor@gmail.com

Tuning: Standard
Meter: 4/4, Slightly Swung

Intro:
  1+2+3+4+ 1+2+3+4+ 1+2+3+4+ 1++2++3++4++
G|--------|--------|--------|------------|
D|--------|--------|--------|35555535555-|
A|--------|--------|--------|-----------5|
E|--------|--------|--------|------------|
  1+2+3+4+ 1+2+3+4+ 1+2+3+4+ 1+2+3+4+
G|--------|--------|--------|--------|
D|--------|--------|--------|--------|
A|--------|--------|--------|--------|
E|3-3-3-3-|3-3-3131|3-3-3-3-|3-3-3333|

                             1+2+3+4+
G|--------|--------|--------|--------|
D|--------|--------|--------|--------|
A|--------|--------|--------|-------4|
E|3-3-3-3-|3-3-3-3-|3-3-3-3-|3-3-3-3-|

                             1++2++3++4++
G|--------|--------|--------|------------|
D|--------|--------|--------|------------|
A|5-5-5-5-|5-5-5454|5-5-5-5-|5--5--555555| (the first '5' is a hammer on from the 4)
E|--------|--------|--------|------------|


Dododo Section:              1+2+3+4+
G|--------|--------|--------|--------|--------|--------|--------|--------|
D|--------|--------|--------|--------|--------|--------|--------|--------|
A|--------|--------|--------|-------4|5-5-5-5-|5-5-5-5-|5-5-5-5-|5-5-5-5-|
E|3-3-3-3-|3-3-3-3-|3-3-3-3-|3-3-3-3-|--------|--------|--------|--------|

G|--------|--------|--------|--------|--------|--------|--------|--------|
D|--------|--------|--------|--------|--------|--------|--------|--------|
A|--------|--------|--------|-------4|5-5-5-5-|5-5-5-5-|5-5-5-5-|5-5-5-5-|
E|3-3-3-3-|3-3-3-3-|3-3-3-3-|3-3-3-3-|--------|--------|--------|--------|


Verse:                                                           1+2+3+4+
G|--------|--------|--------|--------|--------|--------|--------|-7-575--|
D|--------|--------|--------|--------|--------|--------|2-2-2-2-|------7-|
A|--------|--------|--------|--------|3-3-3-3-|2-2-2-2-|--------|5------5|
E|3-3-3-3-|3-3-3-3-|5-5-5-5-|5-5-5-5-|--------|--------|--------|--------|
  "Well you must be a girl..."
                                                                 1+2+3+4+
G|--------|--------|--------|--------|--------|--------|--------|--------|
D|--------|--------|--------|--------|--------|--------|2-2-2-2-|------9/|
A|--------|--------|--------|--------|3-3-3-3-|2-2-2-2-|--------|5-------|
E|3-3-3-3-|3-3-3-3-|5-5-5-5-|5-5-5-5-|--------|--------|--------|--------|
  "Someone said you was..."

  1+2+3+4+ 1+2+3+4+ 1+2+3+4+ 1+2+3+4+ 1+2+3+4+ 1+2+3+4+ 1+2+3+4+ 1+2+3+4+
G|--------|--------|--------|--------|--------|--------|--------|--------|
D|--------|---5----|--------|---5----|--------|--------|--------|--------|
A|567-765-|567-765-|567-765-|567-7---|--------|---5----|--------|---5----|
E|--------|--------|--------|--------|567-765-|567-765-|567-765-|567-7---|
  "I was good she was hot..."


Dododo Section:              1+2+3+4+
G|--------|--------|--------|--------|--------|--------|--------|--------|
D|--------|--------|--------|--------|--------|--------|--------|--------|
A|--------|--------|--------|-------4|5-5-5-5-|5-5-5-5-|5-5-5-5-|5-5-5-5-|
E|3-3-3-3-|3-3-3-3-|3-3-3-3-|3-3-3-3-|--------|--------|--------|--------|


Verse:                                                           1+2+3+4+
G|--------|--------|--------|--------|--------|--------|--------|-7-575--|
D|--------|--------|--------|--------|--------|--------|2-2-2-2-|------7-|
A|--------|--------|--------|--------|3-3-3-3-|2-2-2-2-|--------|5------5|
E|3-3-3-3-|3-3-3-3-|5-5-5-5-|5-5-5-5-|--------|--------|--------|--------|
  "Well you must be a boy..."

                                                                 1+2+3+4+
G|--------|--------|--------|--------|--------|--------|--------|--------|
D|--------|--------|--------|--------|--------|--------|2-2-2-2-|------9/|
A|--------|--------|--------|--------|3-3-3-3-|2-2-2-2-|--------|5-------|
E|3-3-3-3-|3-3-3-3-|5-5-5-5-|5-5-5-5-|--------|--------|--------|--------|
  "Call me up take me down..."

  1+2+3+4+ 1+2+3+4+ 1+2+3+4+ 1+2+3+4+ 1+2+3+4+ 1+2+3+4+ 1+2+3+4+ 1+2+3+4+
G|--------|--------|--------|--------|--------|--------|--------|--------|
D|--------|---5----|--------|---5----|--------|--------|--------|--------|
A|567-765-|567-765-|567-765-|567-7---|--------|---5----|--------|---5----|
E|--------|--------|--------|--------|567-765-|567-765-|567-765-|567-7---|
  "I was good she was hot..."


Bridge: (Triplets)
  1++2++3++4++ 1++2++3++4++ 1++2++3++4++ 1++2++3++4++ 
G|------------|------------|------------|------------|
D|------------|------------|------------|------------|
A|------------|------------|------------|-----------4|
E|3--3333--333|3--333333333|3--3333--333|3--33333333-|

  1++2++3++4++ 1++2++3++4++ 1++2++3++4++ 1++2++3++4++ 
G|------------|------------|------------|------------|
D|------------|------------|------------|-----------4|
A|5--5555--555|5--555555555|5--5555--555|5--55555555-|
E|------------|------------|------------|------------|

  1++2++3++4++ 1++2++3++4++ 1++2++3++4++ 1++2++3++4++ 
G|------------|------------|------------|------------|
D|5--5555--555|5--555555555|5--5555--555|5--555555555|
A|------------|------------|------------|------------|
E|------------|------------|------------|------------|

  1++2++3++4++ 1++2++3++4++ 1++2++3++4++ 1++2++3++4++ 
G|7-----7-----|--77--7-----|7-----7-----|77-55-44-33-|
D|------------|-----5------|------------|------------|
A|------------|------------|------------|------------|
E|------------|------------|------------|------------|


Final-Chorus:
G|--------|--------|--------|--------|--------|--------|--------|--------|
D|--------|--------|--------|--------|--------|--------|--------|--------|
A|--------|3-3-5-5-|--------|3-3-5-5-|--------|3-3-5-5-|--------|5-5-5-5-| x2
E|3-3-3-3-|--------|3-3-3-3-|--------|3-3-3-3-|--------|5-5-5-5-|--------|
  "Chelsea Chelsea I believe..."


Dododo Section:              1+2+3+4+
G|--------|--------|--------|--------|--------|--------|--------|--------|
D|--------|--------|--------|--------|--------|--------|--------|--------|
A|--------|--------|--------|-------4|5-5-5-5-|5-5-5-5-|5-5-5-5-|5-5-5-5-| x2
E|3-3-3-3-|3-3-3-3-|3-3-3-3-|3-3-3-3-|--------|--------|--------|--------|

G|--------|
D|--------|
A|--------|
E|3-------|

~~~~~~~~~~~~~~~~~~~~~~~~~~~~~~~~~~~~~~~~~~~~~~~~~~~~~~~~~~~~~~~~~~~~~~~~~~~~~~

| /  slide up
| \  slide down
| h  hammer-on
| ~  hold

How to read:
  1+2+3+4+   There are 8 "-"'s in each bar,          1++2++3++4++  For these bars, there are
G|--------|  each equaling a quaver .              G|------------|  12 "-"'s because it is a
D|--------|                                        D|------------|  triplet rhythm.
A|--------|                                        A|------------|
E|--------|                                        E|------------|
===============================================================================

            
            
Suggest correction
Creating personal tab
Creating personal tab
You can edit any tab online and save it as your Personal.

You can edit, replace or remove any tab part or add personal notes – all changes will be seen only by you.

Personal tabs can be accessed anytime from any device, even offline.
Learn more »
comments
print report bad tab
guest
You may want to rate the tab now too:
select rating
Wanna post a correction for this tab? Suggest correction