Oops, an error
Loading. Please wait.

Fall Away bass

version 1
version 1

Whole song

Interactive

220 views 1 this week
no commentswrite comment
1 2 3 4 5
x 3
add to favorites
×
Save as Personal and add changes to this tab that will be seen only by you. Learn more ›
×
You can save this tab as Personal to edit and correct it or add notes. All changes will be seen only by you. Learn more »
launch autoscroll
font size
0
reset
guitar tuner
edit
Autoscroll
slow
fast
+/-
esc
set tempo
stop
Author
Difficulty
--------------------------------------------------------------------------
                            Artist - The Fray
                          ********************
                            Song - Fall Away   
                           ******************
                       Album - How To Save A Life
                      ****************************
                          Tabbed By - Ayreon77
                         **********************
--------------------------------------------------------------------------
Tuning = Standard             


00:16
INTRO
******
G|-------------|-------------|-------------|------------|-------------|-------------|-------------|---------|
D|-------------|-3-3-3-3---3-|-------------|------------|-------------|-3-3-3-3---3-|-------------|---------|
A|-4-4-4-4-4-4-|---------3---|-1-1-1-1-1-1-|----------s-|-4-4-4-4-4-4-|---------3---|-1-1-1-1-1-1-|---------|
E|-------------|-------------|-------------|-2-2-2-2-2\-|-------------|-------------|-------------|-2-2-2-2-|


--------------------------
00:31
VERSE 1
********
You swear you recall nothing at all, That could make you come back down  
G|--------|----------|-------|---------|-----|
D|--------|----------|-------|---------|-----|
A|------4-|----6---4-|-4-6-8-|-8---8---|-8-9-|
E|-4--4---|-4----4---|-------|---8---6-|-----|

You made up your mind, to leave it all behind,  Now you're forced to fight it out
G|--------|----------|-------|-------|------------|
D|--------|----------|-------|-------|--s--3-4--4-|
A|------4-|----6---4-|-4-6-8-|---8---|-2\4--------|
E|-4--4---|-4----4---|-------|-8---6-|------------|


--------------------------
00:59
CHORUS
*******
You fall away from your past But it's following you now. You fall away from your past it's following you
G|-------------|-------------|-------------|------------|-------------|-------------|-------------|---------|
D|-------------|-3-3-3-3---3-|-------------|------------|-------------|-3-3-3-3---3-|-------------|---------|
A|-4-4-4-4-4-4-|---------3---|-1-1-1-1-1-1-|----------s-|-4-4-4-4-4-4-|---------3---|-1-1-1-1-3-4-|---------|
E|-------------|-------------|-------------|-2-2-2-2-2\-|-------------|-------------|-------------|-2-2-2-2-|


--------------------------
01:15
VERSE 2
********
You left something undone, it's now your rerun, It's the one you can't erase
G|--------|----------|-------|-------|-----|
D|--------|----------|-------|-------|-----|
A|------4-|----6---4-|-4-6-8-|---8---|-8-9-|
E|-4--4---|-4----4---|-------|-8---6-|-----|

You should have made it right, so you wouldn't have to fight, To put a smile back on your face
G|--------|----------|-------|-------|------------|
D|--------|----------|-------|-------|--s--3-4--4-|
A|------4-|----6---4-|-4-6-8-|---8---|-2\4--------|
E|-4--4---|-4----4---|-------|-8---6-|------------|

--------------------------
01:42
CHORUS
*******
You fall away from your past But it's following you. You fall away from your past it's following you now.
G|-------------|-------------|-------------|------------|-------------|-------------|-------------|----------|
D|-------------|-3-3-3-3---3-|-------------|------------|-------------|-3-3-3-3---3-|-------------|----------|
A|-4-4-4-4-4-4-|---------3---|-1-1-1-1-1-1-|----------s-|-4-4-4-4-4-4-|---------3---|-1-1-1-1-1-1-|--------s-|
E|-------------|-------------|-------------|-2-2-2-2-2\-|-------------|-------------|-------------|-2-2-2-2\-|

01:57
        You     fall     aw---ay..................
G|-------------|-------------|-------------|---------------|
D|-------------|-------------|-------------|---------------|
A|-4-4-4-4-4-4-|-------------|-1-1-1-1-1-0-|--------s--4-6-|
E|-------------|-1-1-1-1-1-1-|-------------|-2-2-2-4\6-----|

         You     fall     aw---ay.................
G|-------------|-------------|-------------|--------------|
D|-------------|-------------|-------------|--------------|
A|-4-4-4-4-4-4-|-------------|-1-1-1-1-1-1-|--------------|
E|-------------|-1-1-1-1-1-1-|-------------|-2-2-2-2-2-2--|



--------------------------
02:13
BRIDGE
*******
             Something I've done that I can't outrun, Something I've done that I can't outrun  
G|-----------|---------|-------|---------|-------|---------|-------|---------|
D|-----------|---------|-------|---------|-------|---------|-------|---------|
A|-----6---4-|-4----h--|-6---4-|-4----h--|-6---4-|-4----h--|-6---4-|-4----h--|
E|-6-----6---|---4-4-6-|---6---|---4-4-6-|---6---|---4-4-6-|---6---|---4-4-6-|

02:30
        Maybe you should wait maybe you should run, But something you've said that can't be undone
G|-------|---------|-------|---------|------s--|---------|-------|---------|-------|-------|
D|-------|---------|-------|---------|-4---4\6-|---------|-------|---------|-------|-------|
A|-6---4-|-4----h--|-6---4-|-4----h--|---4-----|-4----h--|-6---4-|-4----h--|-6---4-|-4---4-|
E|---6---|---4-4-6-|---6---|---4-4-6-|---------|---4-4-6-|---6---|---4-4-6-|---6---|---4---|


--------------------------
02:49
CHORUS - NO BASS AT FIRST
*******
 And you fall away from your past
 It's following you
 You fall away from your past
 But It's following you now

03:04
 You    fall     away  from your past, But It's following you now
G|-------------|-------------|-------------|------------|
D|-------------|-3-3-3-3---3-|-------------|------------|
A|-4-4-4-4-4-4-|---------3---|-1-1-1-1-1-1-|----------s-|
E|-------------|-------------|-------------|-2-2-2-2-2\-|

 You    fall     away  from your past, But It's following you.....
G|-------------|-------------|-------------|-------------|
D|-------------|-3-3-3-3---3-|-------------|-------------|
A|-4-4-4-4-4-4-|---------3---|-1-1-1-1-3-4-|-------------|
E|-------------|-------------|-------------|-2-2-2-2-2-2-|


03:19
  You           fall     aw---ay       It's following you.....
G|-------------|-------------|-------------|-----------------|
D|-------------|-------------|-------------|--------------h--|
A|-4-4-4-4-4-4-|-------------|-1-1-1-1-1-0-|----------s--4-6-|
E|-------------|-1-1-1-1-1-1-|-------------|-2-2-2-2-4\6-----|

  You           fall     aw---ay       But It's following you.....
G|-------------|-------------|-------------|-----------------|
D|-------------|-------------|-------------|--------------h--|
A|-4-4-4-4-4-4-|-------------|-1-1-1-1-1-1-|----------s--4-6-|
E|-------------|-1-1-1-1-1-1-|-------------|-2-2-2-2-4\6-----|


03:35
  You           fall     aw---ay       It's following you.....
G|-------------|-------------|-------------|---------------|
D|-------------|-3-3-3-3---3-|-------------|---------------|
A|-4-4-4-4-4-4-|---------3---|-1-1-1-1-3-4-|--------s--4-6-|
E|-------------|-------------|-------------|-2-2-2-4\6-----|

  You           fall     aw---ay 
G|-------------|-------------|-------------|-------------|---|
D|-------------|-3-3-3-3---3-|-------------|-------------|---|
A|-4-4-4-4-4-4-|---------3---|-1-1-1-1-3-4-|-------------|-4-|
E|-------------|-------------|-------------|-2-2-2-2-2-2-|---|



ENJOY..............


            
            
Suggest correction
Creating personal tab
Creating personal tab
You can edit any tab online and save it as your Personal.

You can edit, replace or remove any tab part or add personal notes – all changes will be seen only by you.

Personal tabs can be accessed anytime from any device, even offline.
Learn more »
Give kudos to tab author, rate the tab!
1 2 3 4 5
comments
print report bad tab
guest
You may want to rate the tab now too:
select rating
Wanna post a correction for this tab? Suggest correction