Oops, an error
Loading. Please wait.

Molly Makeout tab

version 1
version 1

Whole song

2,196 views 1 this week
1 commentread comment
1 2 3 4 5
2 more votes to show rating
add to favorites
×
Save as Personal and add changes to this tab that will be seen only by you. Learn more ›
×
You can save this tab as Personal to edit and correct it or add notes. All changes will be seen only by you. Learn more »
launch autoscroll
font size
0
reset
how to read this tab
guitar tuner
edit
Autoscroll
slow
fast
+/-
esc
set tempo
stop
Author
Difficulty
Molly Makeout
So there's only one version on this site of this song and its completely off so this is 
version.  There's a few chords
in here that I have no name for so I'll write those down for you.  All relative to the 
on the 3rd fret!  The rhythm is too
hard to explain, you'll just have to figure it out.

G:
E|--------3---------------|
B|--------3---------------|
G|------------------------|
D|------------------------|
A|-----2------------------|
E|--------3---------------|

Cadd9:
E|---------3--------------|
B|---------3--------------|
G|------------------------|
D|-------2----------------|
A|--------3---------------|
E|------------------------|

What I call a D/E..........i have no idea what its called so incase a D/E is a real 
excuse my ignorance:
E|--------2--------------|
B|---------3-------------|
G|-----------------------|
D|--------2--------------|
A|-----------------------|
E|-----------------------|

What I call a E/D#.......don't know what to call this either, but it has a D# in it, so.....yeah:
E|-----------------------|
B|-----------------------|
G|------2----------------|
D|----1------------------|
A|-----2-----------------|
E|-----------------------|

otherwise all the chords are normal

Capo 3

Intro Lead Guitar
e|---8---------6--------4--------------------------|
B|----9---------8--------6-------4p3---------------|
G|------3---------3--------3-----------------------|
D|-------3---------3--------3---------------|  X 5-|
A|-------------------------------------------------|
E|-------------------------------------------------|

Intro Rhythm Guitar: Starts on the Second Time Around
G   Cadd9   D   F   G    Cadd9   Am   C

G		        Cadd9
Let me tell you about this girl I know
D		F
Molly makeout whoa oh oh
G
Look up and down
Cadd9
Its rising action
Am	         C
Molly makeout satisfaction
D
Easy to please, get on your knees
Cadd9
Your wasting time

G
Molly Molly makeout
D/E
Molly Molly makeout
Cadd9
Any time, any guy oh oh
Em	        D
Just watch your back
D	 D/E
You wont know what to do
Cadd9
Molly might makeout with you

G  Cadd9  Am F

G	         Cadd9
She was lost but now she's found
Am		   F
I'll tell you what she's thinking now
G		    Cadd9
She thinks she's got all the power
Am
Now for ninety five 2 hours
D
She's easy to please

She'll get on her knees
Asus4      Cadd9
You're wasting time your begging for this
D  		                 Em 		Cadd9
But you're not, oh your not, getting much further tonight
Cadd9
This is why they call her


G
Molly Molly makeout
D/E
Molly Molly makeout
Cadd9
Any time, any guy oh oh
Em	          D
Just watch your back
D	  D/E
You wont know what to do
Cadd9 (let it ring)
Molly my makeout with you

E			D
Molly make out you lie too much
D			Cadd9
Said your lips no boy could touch
Cadd9		         E/D#
If making out just what you do
E/D#			     Em
Then Molly Makeout's the girl for you

Em          Cadd9
G	            D/E
Molly Molly makeout
Cadd9
Any time, any guy
Em                       D
Just watch your back
D	            D/E
You wont know what to do
Cadd9
Molly my makeout with you


G
Molly Molly makeout
D/E
Molly Molly makeout
Cadd9
Any time, any guy oh oh
Em	          D
Just watch your back
D	  D/E
You wont know what to do
Cadd9
Molly my makeout with you
Cadd9
Molly my makeout with you


G	         Cadd9
Oh oh whoa oh oh oh whoa oh
Am		        F
Oh oh whoa oh  oh oh whoa oh

(Molly my make out with you)
G 		Cadd9
Oh oh whoa oh oh oh whoa oh
Am            C (let ring)
Oh whoa oh oh ohhhhhhh

            
            
Suggest correction
Creating personal tab
Creating personal tab
You can edit any tab online and save it as your Personal.

You can edit, replace or remove any tab part or add personal notes – all changes will be seen only by you.

Personal tabs can be accessed anytime from any device, even offline.
Learn more »
Give kudos to tab author, rate the tab!
1 2 3 4 5
comments
print report bad tab
1 comment total.
0 reply
bigg_626 185 Apr 22, 2010 01:13 PM

Intro Lead Guitar
e|---10---------8-----------6-------------------|
B|-----11---------10---------8-------4p3--------|
G|-------3----------3----------3----------------|
D|--------3----------3----------3---------------| X 5-|
A|----------------------------------------------|
E|----------------------------------------------|

guest
You may want to rate the tab now too:
select rating
Wanna post a correction for this tab? Suggest correction