Oops, an error
Loading. Please wait.

2Yl tab

version 1
version 1

Whole song

  • Should fit the song well. held notes have rhythms ... Show more
385 views 12 this week
2 commentsread comments
1 2 3 4 5
3 more votes to show rating
add to favorites
×
Save as Personal and add changes to this tab that will be seen only by you. Learn more ›
×
You can save this tab as Personal to edit and correct it or add notes. All changes will be seen only by you. Learn more »
launch autoscroll
font size
0
reset
how to read this tab
guitar tuner
edit
Autoscroll
slow
fast
+/-
esc
set tempo
stop
About this tab version
Should fit the song well. held notes have rhythms that I didn't write in to keep it clean, but if you listen to the song it shouldn't be too hard. Was this info helpful? Yes No
[Intro Rhythm]
e|---------------------------------|
B|---------------------------------|
G|-------4-6-----6---------------2-|
D|-2-----4-6-----6-7-----7-2-----2-| (x2)
A|-2-----2-4-----4-7-----7-2-----0-|
E|-0---------------5-----5-0-------|

e|-----------------|-----------------|-----------------|
B|-----------------|-----------------|-----------------|
G|-2-2-2-2-2-2-2-2-|-2-2-2-2-2-2-2-2-|-----------------|
D|-2-2-2-2-2-2-2-2-|-2-2-2-2-2-2-2-2-|-2---------------|
A|-0-0-0-0-0-0-0-0-|-0-0-0-0-0-0-0-0-|-2---------------|
E|-----------------|-----------------|-0---------------|

[Intro Solo]
(listen to get the rhythm)
e|-------------------------------------|
B|----------------9-10-10-10-----------|
G|--9-9-9-8-6-6-6------------9-9-9-----|
D|---------------------------------9-9-| (x2)
A|-------------------------------------|
E|-------------------------------------|

(quarter notes)
e|-----------------------------------------|-----------------------------------------|
B|-----------------------------------------|-----------------------------------------|
G|-9-9-9-9-11-11-12-12-9-9-9-9-11-11-12-12-|-13--------------------------------------|
D|-----------------------------------------|-----------------------------------------|
A|-----------------------------------------|-----------------------------------------|
E|-----------------------------------------|-----------------------------------------|

[Verse]

(...hundred miles per hour...)
e|-------------------------|-------------------------|-------------------------|
B|-------------------------|-------------------------|-------------------------|
G|-2-2-2-2-2-2-2-2-2-2-2-2-|-------------------------|-2-2-2-2-2-2-2-2-2-2-2-2-|
D|-2-2-2-2-2-2-2-2-2-2-2-2-|-2-2-2-2-2-2-2-2-2-2-2-2-|-2-2-2-2-2-2-2-2-2-2-2-2-|
A|-0-0-0-0-0-0-0-0-0-0-0-0-|-2-2-2-2-2-2-2-2-2-2-2-2-|-0-0-0-0-0-0-0-0-0-0-0-0-|
E|-------------------------|-0-0-0-0-0-0-0-0-0-0-0-0-|-------------------------|

[Bridge]
(clean)                                         (second time only solo guitar)
e|------------------------------------|         e|------------------------------15-15-|
B|------------------------------------|         B|------------------------------------|
G|------------------------------------|         G|------------------------------------|
D|-2--2-2---4--4-4---6--6-6---7--7-7--| (x2)    D|------------------------------------|
A|-2--2-2---4--4-4---6--6-6---7--7-7--|         A|------------------------------------|
E|------------------------------------|         E|------------------------------------|

e|----------------------------------------------------|
B|----------------------------------------------------|
G|----------------------------------------------------|
D|-2--2-4--4-6--6-7--7\2--2-4--4-6--6-7---9-9-9-9-9-9-|
A|-2--2-4--4-6--6-7--7\2--2-4--4-6--6-7---9-9-9-9-9-9-|
E|-0--0-2--2-4--4-5--5\0--0-2--2-4--4-5---7-7-7-7-7-7-|

[Chorus Rhythm]
e|---------------------------------|
B|---------------------------------|
G|-------4-6-----6-----------------|
D|-2-----4-6-----6-7-----7-2-------| (x2)
A|-2-----2-4-----4-7-----7-2-------|
E|-0---------------5-----5-0-------|

e|-----------------|
B|-----------------|
G|-2-2-2-2-2-2-2-2-|
D|-2-2-2-2-2-2-2-2-|
A|-0-0-0-0-0-0-0-0-|
E|-----------------|

[Chorus Solo]
e|-------------------------------------|
B|----------------9-10-10-10-----------|
G|--9-9-9-8-6-6-6------------9-9-9-----|
D|---------------------------------9-9-| (x2)
A|-------------------------------------|
E|-------------------------------------|

(quarter notes)
e|-----------------------------------------|
B|-----------------------------------------|
G|-9-9-9-9-11-11-12-12-9-9-9-9-11-11-12-12-|
D|-----------------------------------------|
A|-----------------------------------------|
E|-----------------------------------------|

[Verse 2]
(smashing bottles and steppin' on glass...)
e|-------------------------|-------------------------|-------------------------|-------------------------|
B|-------------------------|-------------------------|-------------------------|-------------------------|
G|-------------------------|-2-2-2-2-2-2-2-2-2-2-2-2-|-------------------------|-2-2-2-2-2-2-2-2-2-2-2-2-|
D|-2-2-2-2-2-2-2-2-2-2-2-2-|-2-2-2-2-2-2-2-2-2-2-2-2-|-2-2-2-2-2-2-2-2-2-2-2-2-|-2-2-2-2-2-2-2-2-2-2-2-2-|
A|-2-2-2-2-2-2-2-2-2-2-2-2-|-0-0-0-0-0-0-0-0-0-0-0-0-|-2-2-2-2-2-2-2-2-2-2-2-2-|-0-0-0-0-0-0-0-0-0-0-0-0-|
E|-0-0-0-0-0-0-0-0-0-0-0-0-|-------------------------|-0-0-0-0-0-0-0-0-0-0-0-0-|-------------------------|

[Bridge]
                                                (second time only solo guitar)
e|------------------------------------|         e|------------------------------15-15-|
B|------------------------------------|         B|------------------------------------|
G|------------------------------------|         G|------------------------------------|
D|-2--2-2---4--4-4---6--6-6---7--7-7--| (x2)    D|------------------------------------|
A|-2--2-2---4--4-4---6--6-6---7--7-7--|         A|------------------------------------|
E|------------------------------------|         E|------------------------------------|

e|----------------------------------------------------|
B|----------------------------------------------------|
G|----------------------------------------------------|
D|-2--2-4--4-6--6-7--7\2--2-4--4-6--6-7---9-9-9-9-9-9-|
A|-2--2-4--4-6--6-7--7\2--2-4--4-6--6-7---9-9-9-9-9-9-|
E|-0--0-2--2-4--4-5--5\0--0-2--2-4--4-5---7-7-7-7-7-7-|

[Chorus Rhythm]
e|---------------------------------|
B|---------------------------------|
G|-------4-6-----6-----------------|
D|-2-----4-6-----6-7-----7-2-------| (x4)
A|-2-----2-4-----4-7-----7-2-------|
E|-0---------------5-----5-0-------|

e|-----------------|
B|-----------------|
G|-2-2-2-2-2-2-2-2-|
D|-2-2-2-2-2-2-2-2-|
A|-0-0-0-0-0-0-0-0-|
E|-----------------|

[Chorus Solo]
e|-------------------------------------|
B|----------------9-10-10-10-----------|
G|--9-9-9-8-6-6-6------------9-9-9-----|
D|---------------------------------9-9-| (x2)
A|-------------------------------------|
E|-------------------------------------|

[Chorus Solo 2] 
(2:32)
(listen to get rhythm and accents)
e|------------------------------------------|------------------------------------------|
B|-9---9---9------------------------------9-|-9---9---9--------------------------------|
G|---9---9---6-9-6-9---9---9----------6-9---|---9---9---6-9-6-9---9---9----------------|
D|-------------------9---9--------6-9-------|-------------------9---9------------------|
A|----------------------------7-9-----------|------------------------------------------|
E|------------------------------------------|------------------------------------------|

(quarter notes)
e|-----------------------------------------|
B|-----------------------------------------|
G|-9-9-9-9-11-11-12-12-9-9-9-9-11-11-12-12-|
D|-----------------------------------------|
A|-----------------------------------------|
E|-----------------------------------------|

[Trumpet Solo]
e|---------------------------------|
B|---------------------------------|
G|-------4-6-----6-----------------|
D|-2-----4-6-----6-7-----7-2-------| (x2)
A|-2-----2-4-----4-7-----7-2-------|
E|-0---------------5-----5-0-------|

e|---------------------------------|
B|---------------------------------|
G|---------6-----------------------|
D|-2-------6-------7-------2-------| (x2)
A|-2-------4-------7-------2-------|
E|-0---------------5-------0-------|

[Bridge 2]
e|----------------------------------------------------|----------------------------------------------------|
B|----------------------------------------------------|----------------------------------------------------|
G|----------------------------------------------------|-8-8-8-8-8-8-8-8-11-11-11-11-11-11-11-11-11---------|
D|-2--2-4--4-6--6-7--7\2--2-4--4-6--6-7---9-9-9-9-9-9-|-8-8-8-8-8-8-8-8-11-11-11-11-11-11-11-11-11---------|
A|-2--2-4--4-6--6-7--7\2--2-4--4-6--6-7---9-9-9-9-9-9-|-6-6-6-6-6-6-6-6-9--9--9--9--9--9--9--9--9----------|
E|-0--0-2--2-4--4-5--5\0--0-2--2-4--4-5---7-7-7-7-7-7-|----------------------------------------------------|

[Chorus Rhythm]
e|---------------------------------|
B|---------------------------------|
G|-------4-6-----6-----------------|
D|-2-----4-6-----6-7-----7-2-------| (x4)
A|-2-----2-4-----4-7-----7-2-------|
E|-0---------------5-----5-0-------|

e|-----------------|-----------------|-----------------|
B|-----------------|-----------------|-----------------|
G|-2-2-2-2-2-2-2-2-|-2-2-2-2-2-2-2-2-|-----------------|
D|-2-2-2-2-2-2-2-2-|-2-2-2-2-2-2-2-2-|-2---------------|
A|-0-0-0-0-0-0-0-0-|-0-0-0-0-0-0-0-0-|-2---------------|
E|-----------------|-----------------|-0---------------|

[Chorus Solo]
e|-------------------------------------|
B|----------------9-10-10-10-----------|
G|--9-9-9-8-6-6-6------------9-9-9-----|
D|---------------------------------9-9-| (x2)
A|-------------------------------------|
E|-------------------------------------|

[Chorus Solo 3] 
(3:41)
(listen to get rhythm and accents)
e|------------------------------------------|------------------------------------------|
B|-9---9---8---8---9----------------------9-|-9---9---8---8---9------------------------|
G|---9---9---9---9---6-9-6-9--------6-9-----|---9---9---9---9---6-9-6-9----------------|
D|--------------------------------6-9-------|------------------------------------------|
A|----------------------------7-9-----------|------------------------------------------|
E|------------------------------------------|------------------------------------------|

(quarter notes)
e|-----------------------------------------|-----------------------------------------|
B|-----------------------------------------|-----------------------------------------|
G|-9-9-9-9-11-11-12-12-9-9-9-9-11-11-12-12-|-13--------------------------------------|
D|-----------------------------------------|-----------------------------------------|
A|-----------------------------------------|-----------------------------------------|
E|-----------------------------------------|-----------------------------------------|

************************************

| /   Slide up
| \   Slide down

************************************

            
            
Suggest correction
Creating personal tab
Creating personal tab
You can edit any tab online and save it as your Personal.

You can edit, replace or remove any tab part or add personal notes – all changes will be seen only by you.

Personal tabs can be accessed anytime from any device, even offline.
Learn more »
Give kudos to tab author, rate the tab!
1 2 3 4 5
comments
print report bad tab
2 comments total.
0 reply
mrburnx.minecraft 10 Jun 17, 2017 02:54 PM

Haven't tried this out yet, but nonetheless so great to see this song finally tabbed.

0 reply
markhaskins17 37 Jun 18, 2017 01:46 PM

yea i was really surprised it hadn't been tabbed so I decided to do it myself. hope you like it!

guest
You may want to rate the tab now too:
select rating
Wanna post a correction for this tab? Suggest correction