Oops, an error
Loading. Please wait.

Going Grey album tab

1,267 views 66 this week
no commentswrite comment
1 2 3 4 5
x 4
add to favorites
×
Save as Personal and add changes to this tab that will be seen only by you. Learn more ›
×
You can save this tab as Personal to edit and correct it or add notes. All changes will be seen only by you. Learn more »
launch autoscroll
font size
0
reset
how to read this tab
guitar tuner
edit
Autoscroll
slow
fast
+/-
esc
set tempo
stop
Going Grey
by The Front Bottoms
Tabbed by brands99

 1. You Used to Say (Holy Fuck) 
 2. Peace Sign         
 3. Bae               
 4. Vacation Town             
 5. Don't Fill up on Chips 
 6. Grand Finale           
 7. Trampoline         
 8. Raining              
 9. Far Drive           
10. Everyone But You          
11. Ocean                

------------------------------------------------------------------------------------------------
                          1. You Used to Say (Holy Fuck)
------------------------------------------------------------------------------------------------
Tuning: Standard

[Intro]

e|----------------------------------|----------------------------------|
B|----------------------------------|----------------------------------|
G|-----------------7-7-7-7--5-5-5-5-|----------------------------------|
D|-7-7-7-7-7-7----------------------|-7-7-7-7-7-7-----8-8-8-8--7-7-7-7-|
A|-------------8-8------------------|-------------8-8------------------|
E|----------------------------------|----------------------------------|
                   PM                                PM

[Verse 1]

e|----1----|----10---8----|
B|----1----|----11---8----|
G|----2----|----12---0----|
D|----3----|---------7----|
A|----3----|--------------|
E|----1----|--------------|


[Chorus 1]

e|--------------------------|------------------------|
B|-10-10-10--11-11-10-10-10-|-10-10-10--11-11--10-10-|
G|-10-10-10--10-10-10-10-10-|-10-10-10--11-11--10-10-|
D|--------------------------|------------------------|
A|--------------------------|------------------------|
E|--------------------------|------------------------|

e|------------------|------------------|
B|------------------|------------------|
G|-10-10-10--12--10-|-10-10-10--12--14-|
D|--8--8--8---8---8-|--8--8--8---8---8-|
A|------------------|------------------|
E|------------------|------------------|


[Verse 2]

e|----------------------------------|----------------------------------|
B|----------------------------------|----------------------------------|
G|-----------------7-7-7-7--5-5-5-5-|----------------------------------|
D|-7-7-7-7-7-7----------------------|-7-7-7-7-7-7-----8-8-8-8--7-7-7-7-|
A|-------------8-8------------------|-------------8-8------------------|
E|----------------------------------|----------------------------------|
                   PM                                PM
e|----------------------------------|----------------------------------|
B|----------------------------------|----------------------------------|
G|-----------------7-7-7-7--5-5-5-5-|----------------------------------|
D|-7-7-7-7-7-7----------------------|-5-5-5-5-5-5-5-5--3-3-3-3-3-3-3-3-| (x2)
A|-------------8-8------------------|----------------------------------|
E|----------------------------------|----------------------------------|
                   PM                                PM


[Chorus 2]

e|--------------------------|------------------------|
B|-10-10-10--11-11-10-10-10-|-10-10-10--11-11--10-10-|
G|-10-10-10--10-10-10-10-10-|-10-10-10--11-11--10-10-|
D|--------------------------|------------------------|
A|--------------------------|------------------------|
E|--------------------------|------------------------|

e|-----------------------|
B|------13---15------13--|
G|---------------12------|
D|-----------------------|
A|--8--------------------|
E|-----------------------|

e|------------------|----------------------|
B|------------------|----------------------|
G|-10-10-10--12--10-|-10-10-10--12--14-14--|
D|--8--8--8---8---8-|--8--8--8---8---8--8--|
A|------------------|----------------------|
E|------------------|----------------------|

e|--------------------------|------------------------|
B|-10-10-10--11-11-10-10-10-|-10-10-10--11-11--10-10-|
G|-10-10-10--10-10-10-10-10-|-10-10-10--11-11--10-10-|
D|--------------------------|------------------------|
A|--------------------------|------------------------|
E|--------------------------|------------------------|

e|-----------------------|
B|------13---15------13--|
G|---------------12------|
D|-----------------------|
A|--8--------------------|
E|-----------------------|

e|------------------|----------------------|
B|------------------|----------------------|
G|-10-10-10--12--10-|-10-10-10--12--14-14--|
D|--8--8--8---8---8-|--8--8--8---8---8--8--|
A|------------------|----------------------|
E|------------------|----------------------|


[Solo]

e|-----------------------|-----------------------|------------------------|------------------------|
B|-10-----------10-------|-10-----------10-------|--11-----------11-------|--11-----------11-------|
G|----10-----12----12-10-|----10-----12----12-10-|------------10----10--9-|------------10----10--9-|
D|--------10-------------|--------10-------------|-----12--12-------------|-----12--12-------------|
A|-----------------------|-----------------------|------------------------|------------------------|
E|-----------------------|-----------------------|------------------------|------------------------|

e|------------------------------|------------------------------|
B|-------13--13-10-----------10-|-------13--13-10-----------10-|
G|-----------------12--12-10----|-----------------12--12-10----|
D|--8/10------------------------|--8/10------------------------|
A|------------------------------|------------------------------|
E|------------------------------|------------------------------|

e|--------------------------------|----------------------------------|
B|------15--13--------------------|------15--13----------------------|
G|--/14--------15-12--14--12--10--|--/14--------15-12--14--12--10-12-|
D|--------------------------------|----------------------------------|
A|--------------------------------|----------------------------------|
E|--------------------------------|----------------------------------|

e|----------------|---------------|--------|
B|-------------10-|------------10-|--------|
G|-----10--12-----|----10--12-----|---10~--|
D|-12-------------|-8-------------|--------|
A|----------------|---------------|--------|
E|----------------|---------------|--------|

e|-----------------------------------------|------------------------------20--18--|
B|------13------13------18----17-----15----|------15------15------15--18----------|
G|--/14-----/14-----/17----17----17-----17-|--/15-----/15-----/15-----------------|
D|-----------------------------------------|--------------------------------------|
A|-----------------------------------------|--------------------------------------|
E|-----------------------------------------|--------------------------------------|

e|------------------------|------------------------------20--|
B|-----18----17-----15----|------15------15------15--18------|
G|-/17----17----17-----17-|--/15-----/15-----/15-------------|
D|------------------------|----------------------------------|
A|------------------------|----------------------------------|
E|------------------------|----------------------------------|

e|-17-18--20-17-18----|-20--17-18-----|-20--17-18----|-20--17-18----|
B|-----------------20-|-----------20--|-----------18-|-----------18-|
G|--------------------|---------------|--------------|--------------|
D|--------------------|---------------|--------------|--------------|
A|--------------------|---------------|--------------|--------------|
E|--------------------|---------------|--------------|--------------|


[Outro]

e|--20----17-----|--20----17-----|
B|-----18----18--|--20----17-----|
G|---------------|---------------|
D|---------------|---------------| (x5)
A|---------------|---------------|
E|---------------|---------------|



------------------------------------------------------------------------------------------------
                                   2. Peace Sign
------------------------------------------------------------------------------------------------
Guitar 1 - Acoustic (Standard tuning)
Guitar 2 - Electric (Drop D tuning)


[Intro]
Guitar 2
e|--7-----7-----7-----------|--7-----7--10--7----|
B|-----8-----7-----8---8----|-----8-----------8--|
G|-------------------9----9-|--------------------|
D|--------------------------|--------------------|
A|--------------------------|--------------------|
D|--------------------------|--------------------|


[Verse 1]

Guitar 1
e|--3--3-x--3--3-x--2--2-x--3--3-x--3--|
B|--3--3-x--3--3-x--3--3-x--3--3-x--3--|
G|--0--0-x--0--0-x--2--2-x--0--0-x--0--|
D|--x--x-x--0--0-x--0--0-x--0--0-x--0--| (x2)
A|--2--2-x--2--2-x-------x--2--2-x--2--|
E|-------x--3--3-x-------x--3--3-x--3--|


[Pre-Chorus 1]

Guitar 1
e|--3--3-x--3--3-x--2--2-x--3--3-x--3--|--3--3-x--3--3-x--3--3-x--3--3-x--3--|
B|--3--3-x--3--3-x--3--3-x--3--3-x--3--|--3--3-x--3--3-x--3--3-x--3--3-x--3--|
G|--0--0-x--0--0-x--2--2-x--0--0-x--0--|--0--0-x--0--0-x--2--2-x--0--0-x--0--|
D|--x--x-x--0--0-x--0--0-x--0--0-x--0--|--x--x-x--0--0-x--0--0-x--0--0-x--0--|
A|--2--2-x--2--2-x-------x--2--2-x--2--|--2--2-x--2--2-x--x--x-x--2--2-x--2--|
E|-------x--3--3-x-------x--3--3-x--3--|-------x--3--3-x--2--2-x--3--3-x--3--|


[Chorus 1]

Guitar 1
e|--0--0--0--0--0--0--0--0--|
B|--1--1--1--1--1--1--1--1--|
G|--0--0--0--0--0--0--0--0--|
D|--2--2--2--2--2--2--2--2--| (x2)
A|--3--3--3--3--3--3--3--3--|
E|--------------------------|

e|--3--3-x--2--2-x------------|--0--0-x--2--2-x------------|
B|--3--3-x--3--3-x--0-0-0--0--|--1--1-x--3--3-x--0-0-0--0--|
G|--0--0-x--2--2-x--0-0-0--0--|--0--0-x--2--2-x--0-0-0--0--|
D|--0--0-x--0--0-x--2-2-2--2--|--2--2-x--0--0-x--2-2-2--2--|
A|--2--2-x-------x--2-2-2--2--|--3--3-x-------x--2-2-2--2--|
E|--3--3-x-------x--0-0-0--0--|-------x-------x--0-0-0--0--|

e|--3--3-x--2--2-x------------|--0--0-x--2--2-x------------|
B|--3--3-x--3--3-x--0-0-0--0--|--1--1-x--3--3-x--0-0-0--0--|
G|--0--0-x--2--2-x--0-0-0--0--|--0--0-x--2--2-x--0-0-0--0--|
D|--2--2-x--0--0-x--2-2-2--2--|--2--2-x--0--0-x--2-2-2--2--|
A|--3--3-x-------x--2-2-2--2--|--3--3-x-------x--2-2-2--2--|
E|-------x-------x--0-0-0--0--|-------x-------x--0-0-0--0--|


[Piano Riff]

Guitar 2
e|--7-----7-----7-----------|--7-----7--10--7-----------|
B|-----8-----7-----8---8----|-----8-----------10-8---8--|
G|-------------------9----9-|----------------------9----|
D|--------------------------|---------------------------|
A|--------------------------|---------------------------|
D|--------------------------|---------------------------|

Guitar 1
e|--3--3-x--2--2-x------------|--0--0-x--2--2-x------------| |
B|--3--3-x--3--3-x--0-0-0--0--|--1--1-x--3--3-x--0-0-0--0--| |
G|--0--0-x--2--2-x--0-0-0--0--|--0--0-x--2--2-x--0-0-0--0--| |
D|--0--0-x--0--0-x--2-2-2--2--|--2--2-x--0--0-x--2-2-2--2--| |
A|--2--2-x-------x--2-2-2--2--|--3--3-x-------x--2-2-2--2--| |
E|--3--3-x-------x--0-0-0--0--|-------x-------x--0-0-0--0--| |
                                                             |
Guitar 2                                                     |
e|--7-----7-----7-----------|--7-----7--10--7-----------|    |
B|-----8-----7-----8---8----|-----8-----------10-8---8--|    |
G|-------------------9----9-|----------------------9----|    |
D|--------------------------|---------------------------|    |
A|--------------------------|---------------------------|    |
D|--------------------------|---------------------------|    |


[Verse 2]

Guitar 1
e|--3--3-x--3--3-x--2--2-x--3--3-x--3--|
B|--3--3-x--3--3-x--3--3-x--3--3-x--3--|
G|--0--0-x--0--0-x--2--2-x--0--0-x--0--|
D|--x--x-x--0--0-x--0--0-x--0--0-x--0--| (x2)
A|--2--2-x--2--2-x-------x--2--2-x--2--|
E|-------x--3--3-x-------x--3--3-x--3--|

e|--3--3-x--3--3-x--2--2-x--3--3-x--3--|--3--3-x--3--3-x--3--3-x--3--3-x--3--|
B|--3--3-x--3--3-x--3--3-x--3--3-x--3--|--3--3-x--3--3-x--3--3-x--3--3-x--3--|
G|--0--0-x--0--0-x--2--2-x--0--0-x--0--|--0--0-x--0--0-x--2--2-x--0--0-x--0--|
D|--x--x-x--0--0-x--0--0-x--0--0-x--0--|--x--x-x--0--0-x--0--0-x--0--0-x--0--|
A|--2--2-x--2--2-x-------x--2--2-x--2--|--2--2-x--2--2-x--x--x-x--2--2-x--2--|
E|-------x--3--3-x-------x--3--3-x--3--|-------x--3--3-x--2--2-x--3--3-x--3--|


[Pre-Chours 2]

Guitar 1
e|--0--0--0--0--0--0--0--0--|
B|--1--1--1--1--1--1--1--1--|
G|--0--0--0--0--0--0--0--0--|
D|--2--2--2--2--2--2--2--2--| (x2)
A|--3--3--3--3--3--3--3--3--|
E|--------------------------|


[Chorus 2]

Guitar 1
e|--3--3-x--2--2-x------------|--0--0-x--2--2-x------------|
B|--3--3-x--3--3-x--0-0-0--0--|--1--1-x--3--3-x--0-0-0--0--|
G|--0--0-x--2--2-x--0-0-0--0--|--0--0-x--2--2-x--0-0-0--0--|
D|--0--0-x--0--0-x--2-2-2--2--|--2--2-x--0--0-x--2-2-2--2--|
A|--2--2-x-------x--2-2-2--2--|--3--3-x-------x--2-2-2--2--|
E|--3--3-x-------x--0-0-0--0--|-------x-------x--0-0-0--0--|

e|--3--3-x--2--2-x------------|--0--0-x--2--2-x------------|
B|--3--3-x--3--3-x--0-0-0--0--|--1--1-x--3--3-x--0-0-0--0--|
G|--0--0-x--2--2-x--0-0-0--0--|--0--0-x--2--2-x--0-0-0--0--|
D|--2--2-x--0--0-x--2-2-2--2--|--2--2-x--0--0-x--2-2-2--2--|
A|--3--3-x-------x--2-2-2--2--|--3--3-x-------x--2-2-2--2--|
E|-------x-------x--0-0-0--0--|-------x-------x--0-0-0--0--|

Guitar 2
e|--7-----7-----7-----------|--7-----7--10--7-----------|   |
B|-----8-----7-----8---8----|-----8-----------10-8---8--|   |
G|-------------------9----9-|----------------------9----|   |
D|--------------------------|---------------------------|   |
A|--------------------------|---------------------------|   |
D|--------------------------|---------------------------|   |
                                                            |  
e|--7-----7-----7-----------|--7-----7--10--7-----------|   |   
B|-----8-----7-----8---8----|-----8-----------10-8---8--|   |
G|-------------------9----9-|----------------------9----|   |
D|--------------------------|---------------------------|   |
A|--------------------------|---------------------------|   |
D|--------------------------|---------------------------|   |
                                                            | 
Guitar 1                                                    |
e|--3--3-x--2--2-x------------|--0--0-x--2--2-x-----------| |
B|--3--3-x--3--3-x--0-0-0--0--|--1--1-x--3--3-x--0-0-0--0-| |
G|--0--0-x--2--2-x--0-0-0--0--|--0--0-x--2--2-x--0-0-0--0-| |
D|--0--0-x--0--0-x--2-2-2--2--|--2--2-x--0--0-x--2-2-2--2-| |
A|--2--2-x-------x--2-2-2--2--|--3--3-x-------x--2-2-2--2-| |
E|--3--3-x-------x--0-0-0--0--|-------x-------x--0-0-0--0-| |
                                                            |
e|--3--3-x--2--2-x------------|--0--0-x--2--2-x-----------| |
B|--3--3-x--3--3-x--0-0-0--0--|--1--1-x--3--3-x--0-0-0--0-| |
G|--0--0-x--2--2-x--0-0-0--0--|--0--0-x--2--2-x--0-0-0--0-| |
D|--2--2-x--0--0-x--2-2-2--2--|--2--2-x--0--0-x--2-2-2--2-| |
A|--3--3-x-------x--2-2-2--2--|--3--3-x-------x--2-2-2--2-| |
E|-------x-------x--0-0-0--0--|-------x-------x--0-0-0--0-| |


[Bridge]

Guitar 1
e|--0--0--0--3--3--3--3--3--|-----------2--2--2--2--2-|
B|--1--1--1--3--3--3--3--3--|--0--0--0--3--3--3--3--3-|
G|--0--0--0--0--0--0--0--0--|--0--0--0--2--2--2--2--2-|
D|--2--2--2--0--0--0--0--0--|--2--2--2--0--0--0--0--0-| (x2)
A|--3--3--3--2--2--2--2--2--|--2--2--2----------------|
E|-----------3--3--3--3--3--|--0--0--0----------------|


[Solo]

Guitar 2
e|-----------------|---------------------------|-----------------|---------------------------------|
B|-8-----7---------|---------------------------|-8-----7---------|---------------------------------|
G|---7-----7-------|---------------------------|---7-----7-------|---------------------------------|
D|-----9-----9-8h9-|---------------------------|-----9-----9-8h9-|---------------------------------|
A|-----------------|-10--10--10--9--9--9--9--9-|-----------------|-10--10--10--12--12--12--12--12--|
D|-----------------|---------------------------|-----------------|---------------------------------|

e|-----------------|-----------------|-----------------|------------------|
B|-8-----7---------|-8-----7---------|-8-----7---------|-8--8--8--8--7----|
G|---7-----7-------|---7-----7-------|---7-----7-------|----------------7-|
D|-----9-----9-8h9-|-----9-----9-8h9-|-----9-----9-8h9-|------------------|
A|-----------------|-----------------|-----------------|------------------|
D|-----------------|-----------------|-----------------|------------------|

Guitar 1
e|--0--0--0--3--3--3--3--3--|-----------2--2--2--2--2-|
B|--1--1--1--3--3--3--3--3--|--0--0--0--3--3--3--3--3-|
G|--0--0--0--0--0--0--0--0--|--0--0--0--2--2--2--2--2-|
D|--2--2--2--0--0--0--0--0--|--2--2--2--0--0--0--0--0-| (x3)
A|--3--3--3--2--2--2--2--2--|--2--2--2----------------|
E|-----------3--3--3--3--3--|--0--0--0----------------|

e|--0--0--0--3--3--3--3--3--|-----------2--2--|
B|--1--1--1--3--3--3--3--3--|--0--0--0--3--3--|
G|--0--0--0--0--0--0--0--0--|--0--0--0--2--2--|
D|--2--2--2--0--0--0--0--0--|--2--2--2--0--0--|
A|--3--3--3--2--2--2--2--2--|--2--2--2--------|
E|-----------3--3--3--3--3--|--0--0--0--------|


[Piano Riff]

Guitar 2
e|--7-----7-----7-----------|--7-----7--10--7----|
B|-----8-----7-----8---8----|-----8-----------8--|
G|-------------------9----9-|--------------------|
D|--------------------------|--------------------|
A|--------------------------|--------------------|
D|--------------------------|--------------------|


[Chorus 3]

Guitar 1
e|--3--3-x--2--2-x------------|--0--0-x--2--2-x------------|
B|--3--3-x--3--3-x--0-0-0--0--|--1--1-x--3--3-x--0-0-0--0--|
G|--0--0-x--2--2-x--0-0-0--0--|--0--0-x--2--2-x--0-0-0--0--|
D|--0--0-x--0--0-x--2-2-2--2--|--2--2-x--0--0-x--2-2-2--2--|
A|--2--2-x-------x--2-2-2--2--|--3--3-x-------x--2-2-2--2--|
E|--3--3-x-------x--0-0-0--0--|-------x-------x--0-0-0--0--|

e|--3--3-x--2--2-x------------|--0--0-x--2--2-x------------|
B|--3--3-x--3--3-x--0-0-0--0--|--1--1-x--3--3-x--0-0-0--0--|
G|--0--0-x--2--2-x--0-0-0--0--|--0--0-x--2--2-x--0-0-0--0--|
D|--2--2-x--0--0-x--2-2-2--2--|--2--2-x--0--0-x--2-2-2--2--|
A|--3--3-x-------x--2-2-2--2--|--3--3-x-------x--2-2-2--2--|
E|-------x-------x--0-0-0--0--|-------x-------x--0-0-0--0--|


[Outro]

Guitar 2
e|--7-----7-----7-----------|--7-----7--10--7-----------|   |
B|-----8-----7-----8---8----|-----8-----------10-8---8--|   |
G|-------------------9----9-|----------------------9----|   |
D|--------------------------|---------------------------|   |
A|--------------------------|---------------------------|   |
D|--------------------------|---------------------------|   |
                                                            |  
e|--7-----7-----7-----------|--7-----7--10--7-----------|   |   
B|-----8-----7-----8---8----|-----8-----------10-8---8--|   |
G|-------------------9----9-|----------------------9----|   |
D|--------------------------|---------------------------|   |
A|--------------------------|---------------------------|   |
D|--------------------------|---------------------------|   |
                                                            | 
Guitar 1                                                    |
e|--3--3-x--2--2-x------------|--0--0-x--2--2-x-----------| |
B|--3--3-x--3--3-x--0-0-0--0--|--1--1-x--3--3-x--0-0-0--0-| |
G|--0--0-x--2--2-x--0-0-0--0--|--0--0-x--2--2-x--0-0-0--0-| |
D|--0--0-x--0--0-x--2-2-2--2--|--2--2-x--0--0-x--2-2-2--2-| |
A|--2--2-x-------x--2-2-2--2--|--3--3-x-------x--2-2-2--2-| |
E|--3--3-x-------x--0-0-0--0--|-------x-------x--0-0-0--0-| |
                                                            |
e|--3--3-x--2--2-x------------|--0--0-x--2--2-x-----------| |
B|--3--3-x--3--3-x--0-0-0--0--|--1--1-x--3--3-x--0-0-0--0-| |
G|--0--0-x--2--2-x--0-0-0--0--|--0--0-x--2--2-x--0-0-0--0-| |
D|--2--2-x--0--0-x--2-2-2--2--|--2--2-x--0--0-x--2-2-2--2-| |
A|--3--3-x-------x--2-2-2--2--|--3--3-x-------x--2-2-2--2-| |
E|-------x-------x--0-0-0--0--|-------x-------x--0-0-0--0-| |


[Outro 2]

Guitar 2
e|-------------------------|---------------------------|
B|-------------------------|---------------------------|
G|-------------------------|---------------------------|
D|-------------------------|---------------------------|
A|--5--5--0--0--2--2--2--2-|-/10--10--0--0--2--2--2--2-|
D|--5--5--0--0--2--2--2--2-|-/10--10--0--0--2--2--2--2-|

e|-------------------------|---------------------------------|
B|-------------------------|---------------------------------|
G|-------------------------|---------------------------------|
D|-------------------------|---------------------------------|
A|--5--5--0--0--2--2--2--2-|-/10--10--12--12--14--14--14--14-|
D|--5--5--0--0--2--2--2--2-|-/10--10--12--12--14--14--14--14-|



------------------------------------------------------------------------------------------------
                                       3. Bae
------------------------------------------------------------------------------------------------
Tuning: Standard

Guitar 1 - Acoustic
Guitar 2 - Electric

[Intro]

Guitar 1
e|-------------------|-------------|
B|-------------------|-------------|
G|-------------------|-------------|
D|-3-3-3-4-4-4-4-4-4-|-4-4-4-4-4-4-| (x2)
A|-3-3-3-4-4-4-4-4-4-|-4-4-4-4-4-4-|
E|-1-1-1-2-2-2-2-2-2-|-2-2-2-2-2-2-|


[Verse 1]

Guitar 1
e|-------------------|-------------|-------------------|-------------|
B|-------------------|-------------|-------------------|-------------|
G|-------------------|-------------|-------------------|-------------|
D|-3-3-3-4-4-4-4-4-4-|-4-4-4-4-4-4-|-3-3-3-4-4-4-4-4-4-|-4-4-4-4-4-4-|
A|-3-3-3-4-4-4-4-4-4-|-4-4-4-4-4-4-|-3-3-3-4-4-4-4-4-4-|-4-4-4-4-4-4-|
E|-1-1-1-2-2-2-2-2-2-|-2-2-2-2-2-2-|-1-1-1-2-2-2-2-2-2-|-2-2-2-2-2-2-|

e|-------------------|-------------|-------------------|-------------|
B|-------------------|-------------|-------------------|-------------|
G|-3-3-3-4-4-4-4-4-4-|-4-4-4-4-4-4-|-3-3-3-4-4-4-4-4-4-|-4-4-4-4-4-4-|
D|-3-3-3-4-4-4-4-4-4-|-4-4-4-4-4-4-|-3-3-3-4-4-4-4-4-4-|-4-4-4-4-4-4-|
A|-1-1-1-2-2-2-2-2-2-|-2-2-2-2-2-2-|-1-1-1-2-2-2-2-2-2-|-2-2-2-2-2-2-|
E|-------------------|-------------|-------------------|-------------|


Guitar 1
e|-------------------|-------------|-------------------|-------------||
B|-------------------|-------------|-------------------|-------------||
G|-------------------|-------------|-------------------|-------------||
D|-3-3-3-4-4-4-4-4-4-|-4-4-4-4-4-4-|-3-3-3-4-4-4-4-4-4-|-4-4-4-4-4-4-||
A|-3-3-3-4-4-4-4-4-4-|-4-4-4-4-4-4-|-3-3-3-4-4-4-4-4-4-|-4-4-4-4-4-4-||
E|-1-1-1-2-2-2-2-2-2-|-2-2-2-2-2-2-|-1-1-1-2-2-2-2-2-2-|-2-2-2-2-2-2-||
Guitar 2                                                              |
e|-------2-----------|-------------|-------------------|-------------||
B|-------2-----------|-------------|-------------------|-------------||
G|-------3-----------|-------------|-------------------|-------------||
D|-------4-----------|-------------|-------------------|-------------||
A|-------------------|-------------|-------------------|-------------||
E|-------------------|-------------|-------------------|-------------||


Guitar 1
e|-------------------|-------------|-------------------|-------------||
B|-------------------|-------------|-------------------|-------------||
G|-3-3-3-4-4-4-4-4-4-|-4-4-4-4-4-4-|-3-3-3-4-4-4-4-4-4-|-4-4-4-4-4-4-||
D|-3-3-3-4-4-4-4-4-4-|-4-4-4-4-4-4-|-3-3-3-4-4-4-4-4-4-|-4-4-4-4-4-4-||
A|-1-1-1-2-2-2-2-2-2-|-2-2-2-2-2-2-|-1-1-1-2-2-2-2-2-2-|-2-2-2-2-2-2-||
E|-------------------|-------------|-------------------|-------------||
Guitar 2                                                              |
e|---------------------------------|---------------------------------||
B|---------------------------------|---------------------------------||
G|--------3------------------------|--------3------------------------||
D|----------4----4-----4-----4-----|----------4----4-----4-----4-----||
A|------------2-----2-----2--------|------------2-----2-----2--------||
E|---------------------------------|---------------------------------||


[Pre-Chorus 1]

Guitar 1
e|-------------------|-------------|-------------------|-------------||
B|-------------------|-------------|-------------------|-------------||
G|-------------------|-------------|-------------------|-------------||
D|-3-3-3-4-4-4-4-4-4-|-4-4-4-4-4-4-|-3-3-3-4-4-4-4-4-4-|-4-4-4-4-4-4-||
A|-3-3-3-4-4-4-4-4-4-|-4-4-4-4-4-4-|-3-3-3-4-4-4-4-4-4-|-4-4-4-4-4-4-||
E|-1-1-1-2-2-2-2-2-2-|-2-2-2-2-2-2-|-1-1-1-2-2-2-2-2-2-|-2-2-2-2-2-2-||
Guitar 2                                                              |
e|-------------------|-------------|-------------------|-------------||
B|-------------------|-------------|-------------------|-------------||
G|--4-6-4--3---------|-------------|--4-6-4--3---------|-------------||
D|-------------------|-------------|-------------------|-------------||
A|-------------------|-------------|-------------------|-------------||
E|-------------------|-------------|-------------------|-------------||


Guitar 1
e|-------------------|-------------|-------------------|-------------||
B|-------------------|-------------|-------------------|-------------||
G|-3-3-3-4-4-4-4-4-4-|-4-4-4-4-4-4-|-3-3-3-4-4-4-4-4-4-|-4-4-4-4-4-4-||
D|-3-3-3-4-4-4-4-4-4-|-4-4-4-4-4-4-|-3-3-3-4-4-4-4-4-4-|-4-4-4-4-4-4-||
A|-1-1-1-2-2-2-2-2-2-|-2-2-2-2-2-2-|-1-1-1-2-2-2-2-2-2-|-2-2-2-2-2-2-||
E|-------------------|-------------|-------------------|-------------||
Guitar 2                                                              |
e|-------------------|-------------|-------------------|-------------||
B|--9-11-9--7--------|-------------|--9-11-9--7--------|-------------||
G|-------------------|-------------|-------------------|-------------||
D|-------------------|-------------|-------------------|-------------||
A|-------------------|-------------|-------------------|-------------||
E|-------------------|-------------|-------------------|-------------||


[Chorus 1]

Guitar 1
e|-----------|-----------------|-----------------||
B|-----------|-----------------|-----------------||
G|-----------|-----------------|-----------------||
D|--3--3--3--|-4-4-4-4-4-4-4-4-|-4-4-4-4-4-4-4-4-||
A|--3--3--3--|-4-4-4-4-4-4-4-4-|-4-4-4-4-4-4-4-4-||
E|--1--1--1--|-2-2-2-2-2-2-2-2-|-2-2-2-2-2-2-2-2-||
Guitar 2                                          |
e|-----------|-----------------|-----------------||
B|-----------|-----------------|-----------------||
G|-4-6-4--3--|-----------------|-----------------||
D|--------4--|-----------------|-----------------||
A|-----------|-----------------|-----------------||
E|-----------|-----------------|-----------------||


Guitar 1
e|-----------------|-----------------|-----------------|-----------------||
B|-----------------|-----------------|-----------------|-----------------||
G|-6-6-6-6-6-6-6-6-|-6-6-6-6-6-6-6-6-|-4-4-4-4-4-4-4-4-|-4-4-4-4-4-4-4-4-||
D|-6-6-6-6-6-6-6-6-|-6-6-6-6-6-6-6-6-|-4-4-4-4-4-4-4-4-|-4-4-4-4-4-4-4-4-||
A|-4-4-4-4-4-4-4-4-|-4-4-4-4-4-4-4-4-|-2-2-2-2-2-2-2-2-|-2-2-2-2-2-2-2-2-||
E|-----------------|-----------------|-----------------|-----------------||
Guitar 2                                                                  |  
e|-----------------|-----------------|-----------------|-----------------||
B|-----------------|-----------------|-----------------|-----------------||
G|-6---------------|-----------------|-4---------------|-----------------||
D|-6---------------|-----------------|-4---------------|-----------------||
A|-4---------------|-----------------|-2---------------|-----------------||
E|-----------------|-----------------|-----------------|-----------------||


Guitar 1
e|-----------------|---------||
B|-----------------|---------||
G|-----------------|-6-6-6-6-||
D|-4-4-4-4-4-4-4-4-|-6-6-6-6-||
A|-4-4-4-4-4-4-4-4-|-4-4-4-4-||
E|-2-2-2-2-2-2-2-2-|---------||
Guitar 2                      | 
e|-----------------|---------||
B|-----------------|---------||
G|-----------------|-6-------||
D|-4---------------|-6-------||
A|-4---------------|-4-------||
E|-2---------------|---------||


Guitar 1
e|-------------------|-------------|-------------------|-------------||
B|-------------------|-------------|-------------------|-------------||
G|-------------------|-------------|-------------------|-------------||
D|-3-3-3-4-4-4-4-4-4-|-4-4-4-4-4-4-|-3-3-3-4-4-4-4-4-4-|-4-4-4-4-4-4-||
A|-3-3-3-4-4-4-4-4-4-|-4-4-4-4-4-4-|-3-3-3-4-4-4-4-4-4-|-4-4-4-4-4-4-||
E|-1-1-1-2-2-2-2-2-2-|-2-2-2-2-2-2-|-1-1-1-2-2-2-2-2-2-|-2-2-2-2-2-2-||
Guitar 2                                                              |
e|---------------------------------|---------------------------------||
B|-----------2---------------------|-----------2---------------------||
G|--4-6-4--3------3-----3-----3----|--4-6-4--3------3-----3-----3----||
D|-------------4-----4-----4-------|-------------4-----4-----4-------||
A|---------------------------------|---------------------------------||
E|---------------------------------|---------------------------------||


Guitar 1
e|-------------------|-------------|-------------------|-------------||
B|-------------------|-------------|-------------------|-------------||
G|-3-3-3-4-4-4-4-4-4-|-4-4-4-4-4-4-|-3-3-3-4-4-4-4-4-4-|-4-4-4-4-4-4-||
D|-3-3-3-4-4-4-4-4-4-|-4-4-4-4-4-4-|-3-3-3-4-4-4-4-4-4-|-4-4-4-4-4-4-||
A|-1-1-1-2-2-2-2-2-2-|-2-2-2-2-2-2-|-1-1-1-2-2-2-2-2-2-|-2-2-2-2-2-2-||
E|-------------------|-------------|-------------------|-------------||
Guitar 2                                                              |
e|------------6--------------------|------------6--------------------||
B|--9-11-9--7------7-6--7---7------|--9-11-9--7------7-6--7---7------||
G|--------------8---------8--------|--------------8---------8--------||
D|---------------------------------|---------------------------------||
A|---------------------------------|---------------------------------||
E|---------------------------------|---------------------------------||


[Verse 2]

Guitar 1
e|-------------------|-------------|-------------------|-------------||
B|-------------------|-------------|-------------------|-------------||
G|-------------------|-------------|-------------------|-------------||
D|-3-3-3-4-4-4-4-4-4-|-4-4-4-4-4-4-|-3-3-3-4-4-4-4-4-4-|-4-4-4-4-4-4-||
A|-3-3-3-4-4-4-4-4-4-|-4-4-4-4-4-4-|-3-3-3-4-4-4-4-4-4-|-4-4-4-4-4-4-||
E|-1-1-1-2-2-2-2-2-2-|-2-2-2-2-2-2-|-1-1-1-2-2-2-2-2-2-|-2-2-2-2-2-2-||
Guitar 2                                                              |  
e|-------------------|-------------|-------------------|-------------||
B|-------------------|-------------|-------------------|-------------||
G|--4-6-4--3---------|-------------|-------------------|-------------||
D|-------------------|-------------|-------------------|-------------||
A|-------------------|-------------|-------------------|-------------||
E|-------------------|-------------|-------------------|-------------||


Guitar 1
e|-------------------|-------------|-------------------|-------------||
B|-------------------|-------------|-------------------|-------------||
G|-3-3-3-4-4-4-4-4-4-|-4-4-4-4-4-4-|-3-3-3-4-4-4-4-4-4-|-4-4-4-4-4-4-||
D|-3-3-3-4-4-4-4-4-4-|-4-4-4-4-4-4-|-3-3-3-4-4-4-4-4-4-|-4-4-4-4-4-4-||
A|-1-1-1-2-2-2-2-2-2-|-2-2-2-2-2-2-|-1-1-1-2-2-2-2-2-2-|-2-2-2-2-2-2-||
E|-------------------|-------------|-------------------|-------------||
Guitar 2                                                              |
e|---------------------------------|---------------------------------||
B|---------------------------------|---------------------------------||
G|-------3-------------------------|-------3-------------------------||
D|---------4-----4-----4-----4-----|---------4----4-----4-----4------||
A|------------2-----2-----2--------|-----------2-----2-----2---------||
E|---------------------------------|---------------------------------||


[Pre-Chorus 2]

Guitar 1
e|-------------------|-------------|-------------------|-------------||
B|-------------------|-------------|-------------------|-------------||
G|-------------------|-------------|-------------------|-------------||
D|-3-3-3-4-4-4-4-4-4-|-4-4-4-4-4-4-|-3-3-3-4-4-4-4-4-4-|-4-4-4-4-4-4-||
A|-3-3-3-4-4-4-4-4-4-|-4-4-4-4-4-4-|-3-3-3-4-4-4-4-4-4-|-4-4-4-4-4-4-||
E|-1-1-1-2-2-2-2-2-2-|-2-2-2-2-2-2-|-1-1-1-2-2-2-2-2-2-|-2-2-2-2-2-2-||
Guitar 2                                                              |
e|-------------------|-------------|-------------------|-------------||
B|-------------------|-------------|-------------------|-------------||
G|--4-6-4--3---------|-------------|--4-6-4--3---------|-------------||
D|-------------------|-------------|-------------------|-------------||
A|-------------------|-------------|-------------------|-------------||
E|-------------------|-------------|-------------------|-------------||


Guitar 1
e|-------------------|-------------|-------------------|-------------||
B|-------------------|-------------|-------------------|-------------||
G|-3-3-3-4-4-4-4-4-4-|-4-4-4-4-4-4-|-3-3-3-4-4-4-4-4-4-|-4-4-4-4-4-4-||
D|-3-3-3-4-4-4-4-4-4-|-4-4-4-4-4-4-|-3-3-3-4-4-4-4-4-4-|-4-4-4-4-4-4-||
A|-1-1-1-2-2-2-2-2-2-|-2-2-2-2-2-2-|-1-1-1-2-2-2-2-2-2-|-2-2-2-2-2-2-||
E|-------------------|-------------|-------------------|-------------||
Guitar 2                                                              |
e|-------------------|-------------|-------------------|-------------||
B|--9-11-9--7--------|-------------|--9-11-9--7--------|-------------||
G|-------------------|-------------|-------------------|-------------||
D|-------------------|-------------|-------------------|-------------||
A|-------------------|-------------|-------------------|-------------||
E|-------------------|-------------|-------------------|-------------||


[Chorus 2]

Guitar 1
e|-----------|-----------------|-----------------||
B|-----------|-----------------|-----------------||
G|-----------|-----------------|-----------------||
D|--3--3--3--|-4-4-4-4-4-4-4-4-|-4-4-4-4-4-4-4-4-||
A|--3--3--3--|-4-4-4-4-4-4-4-4-|-4-4-4-4-4-4-4-4-||
E|--1--1--1--|-2-2-2-2-2-2-2-2-|-2-2-2-2-2-2-2-2-||
Guitar 2                                          |
e|-----------|-----------------|-----------------||
B|-----------|-----------------|-----------------||
G|-4-6-4--3--|-----------------|-----------------||
D|--------4--|-----------------|-----------------||
A|-----------|-----------------|-----------------||
E|-----------|-----------------|-----------------||


Guitar 1
e|-----------------|-----------------|-----------------|-----------------||
B|-----------------|-----------------|-----------------|-----------------||
G|-6-6-6-6-6-6-6-6-|-6-6-6-6-6-6-6-6-|-4-4-4-4-4-4-4-4-|-4-4-4-4-4-4-4-4-||
D|-6-6-6-6-6-6-6-6-|-6-6-6-6-6-6-6-6-|-4-4-4-4-4-4-4-4-|-4-4-4-4-4-4-4-4-||
A|-4-4-4-4-4-4-4-4-|-4-4-4-4-4-4-4-4-|-2-2-2-2-2-2-2-2-|-2-2-2-2-2-2-2-2-||
E|-----------------|-----------------|-----------------|-----------------||
Guitar 2                                                                  |  
e|-----------------|-----------------|-----------------|-----------------||
B|-----------------|-----------------|-----------------|-----------------||
G|-6---------------|-----------------|-4---------------|-----------------||
D|-6---------------|-----------------|-4---------------|-----------------||
A|-4---------------|-----------------|-2---------------|-----------------||
E|-----------------|-----------------|-----------------|-----------------||


Guitar 1
e|-----------------|---------||
B|-----------------|---------||
G|-----------------|-6-6-6-6-||
D|-4-4-4-4-4-4-4-4-|-6-6-6-6-||
A|-4-4-4-4-4-4-4-4-|-4-4-4-4-||
E|-2-2-2-2-2-2-2-2-|---------||
Guitar 2                      | 
e|-----------------|---------||
B|-----------------|---------||
G|-----------------|-6-------||
D|-4---------------|-6-------||
A|-4---------------|-4-------||
E|-2---------------|---------||


Guitar 1
e|-----------|-----------------|-----------------||
B|-----------|-----------------|-----------------||
G|-----------|-----------------|-----------------||
D|--3--3--3--|-4-4-4-4-4-4-4-4-|-4-4-4-4-4-4-4-4-||
A|--3--3--3--|-4-4-4-4-4-4-4-4-|-4-4-4-4-4-4-4-4-||
E|--1--1--1--|-2-2-2-2-2-2-2-2-|-2-2-2-2-2-2-2-2-||
Guitar 2                                          |
e|-----------|-----------------|-----------------||
B|-----------|-----------------|-----------------||
G|-4-6-4--3--|-----------------|-----------------||
D|--------4--|-----------------|-----------------||
A|-----------|-----------------|-----------------||
E|-----------|-----------------|-----------------||


Guitar 1
e|-----------------|-----------------|-----------------|-----------------||
B|-----------------|-----------------|-----------------|-----------------||
G|-6-6-6-6-6-6-6-6-|-6-6-6-6-6-6-6-6-|-4-4-4-4-4-4-4-4-|-4-4-4-4-4-4-4-4-||
D|-6-6-6-6-6-6-6-6-|-6-6-6-6-6-6-6-6-|-4-4-4-4-4-4-4-4-|-4-4-4-4-4-4-4-4-||
A|-4-4-4-4-4-4-4-4-|-4-4-4-4-4-4-4-4-|-2-2-2-2-2-2-2-2-|-2-2-2-2-2-2-2-2-||
E|-----------------|-----------------|-----------------|-----------------||
Guitar 2                                                                  |  
e|-----------------|-----------------|-----------------|-----------------||
B|-----------------|-----------------|-----------------|-----------------||
G|-6---------------|-----------------|-4---------------|-----------------||
D|-6---------------|-----------------|-4---------------|-----------------||
A|-4---------------|-----------------|-2---------------|-----------------||
E|-----------------|-----------------|-----------------|-----------------||


Guitar 1
e|-----------------|---------||
B|-----------------|---------||
G|-----------------|-6-6-6-6-||
D|-4-4-4-4-4-4-4-4-|-6-6-6-6-||
A|-4-4-4-4-4-4-4-4-|-4-4-4-4-||
E|-2-2-2-2-2-2-2-2-|---------||
Guitar 2                      | 
e|-----------------|---------||
B|-----------------|---------||
G|-----------------|-6-------||
D|-4---------------|-6-------||
A|-4---------------|-4-------||
E|-2---------------|---------||


Guitar 1
e|-------------------|-------------|-------------------|-------------||
B|-------------------|-------------|-------------------|-------------||
G|-------------------|-------------|-------------------|-------------||
D|-3-3-3-4-4-4-4-4-4-|-4-4-4-4-4-4-|-3-3-3-4-4-4-4-4-4-|-4-4-4-4-4-4-||
A|-3-3-3-4-4-4-4-4-4-|-4-4-4-4-4-4-|-3-3-3-4-4-4-4-4-4-|-4-4-4-4-4-4-||
E|-1-1-1-2-2-2-2-2-2-|-2-2-2-2-2-2-|-1-1-1-2-2-2-2-2-2-|-2-2-2-2-2-2-||
Guitar 2                                                              |
e|---------------------------------|---------------------------------||
B|------------2--------------------|------------2--------------------||
G|---4-6-4--3------3-----3-----3---|---4-6-4--3------3-----3-----3---||
D|--------------4-----4-----4------|--------------4-----4-----4------||
A|---------------------------------|---------------------------------||
E|---------------------------------|---------------------------------||


Guitar 1
e|-------------------|-------------|-------------------|-------------||
B|-------------------|-------------|-------------------|-------------||
G|-3-3-3-4-4-4-4-4-4-|-4-4-4-4-4-4-|-3-3-3-4-4-4-4-4-4-|-4-4-4-4-4-4-||
D|-3-3-3-4-4-4-4-4-4-|-4-4-4-4-4-4-|-3-3-3-4-4-4-4-4-4-|-4-4-4-4-4-4-||
A|-1-1-1-2-2-2-2-2-2-|-2-2-2-2-2-2-|-1-1-1-2-2-2-2-2-2-|-2-2-2-2-2-2-||
E|-------------------|-------------|-------------------|-------------||
Guitar 2                                                              |
e|-------------6-------------------|-------------6-------------------||
B|---9-11-9--7------7-6--7---7-----|---9-11-9--7------7-6--7---7-----||
G|---------------8---------8-------|---------------8---------8-------||
D|---------------------------------|---------------------------------||
A|---------------------------------|---------------------------------||
E|---------------------------------|---------------------------------||


[Outro]

Guitar 1
e|-------------------|-------------|-------------------|-------------||
B|-------------------|-------------|-------------------|-------------||
G|-------------------|-------------|-------------------|-------------||
D|-3-3-3-4-4-4-4-4-4-|-4-4-4-4-4-4-|-3-3-3-4-4-4-4-4-4-|-4-4-4-4-4-4-||
A|-3-3-3-4-4-4-4-4-4-|-4-4-4-4-4-4-|-3-3-3-4-4-4-4-4-4-|-4-4-4-4-4-4-||
E|-1-1-1-2-2-2-2-2-2-|-2-2-2-2-2-2-|-1-1-1-2-2-2-2-2-2-|-2-2-2-2-2-2-||
Guitar 2                                                              |
e|------------------|-------------|-------------------|--------------||
B|------------------|-------------|-------------------|--------------||
G|------4-6-4--3----|-------------|-------------------|--------------||
D|--------4---------|-------------|-------------------|--------------||
A|------------------|-------------|-------------------|--------------||
E|------------------|-------------|-------------------|--------------||


Guitar 1
e|-------------------|-------------|-------------------|-------------|
B|-------------------|-------------|-------------------|-------------|
G|-3-3-3-4-4-4-4-4-4-|-4-4-4-4-4-4-|-3-3-3-4-4-4-4-4-4-|-4-4-4-4-4-4-|
D|-3-3-3-4-4-4-4-4-4-|-4-4-4-4-4-4-|-3-3-3-4-4-4-4-4-4-|-4-4-4-4-4-4-|
A|-1-1-1-2-2-2-2-2-2-|-2-2-2-2-2-2-|-1-1-1-2-2-2-2-2-2-|-2-2-2-2-2-2-|
E|-------------------|-------------|-------------------|-------------|

e|----------|
B|----------|
G|----------|
D|-3-3-3-4--|
A|-3-3-3-4--|
E|-1-1-1-2--|



------------------------------------------------------------------------------------------------
                              4. Vacation Town
------------------------------------------------------------------------------------------------
Tuning: Standard

Guitar 1 - Acoustic
Guitar 2 - Electric


[Verse 1]

Guitar 1
e|-----------------|-----------------|-----------------|-----------------|
B|-----------------|-----------------|-----------------|-----------------|
G|-----------------|-----------------|-----------------|-----------------|
D|-----------------|-2-2-2-2-2-2-2-2-|-----------------|-----------------| (x5)
A|-2-2-2-2-2-2-2-2-|-2-2-2-2-2-2-2-2-|-7-7-7-7-7-7-7-7-|-7-7-7-7-7-7-7-7-|
E|-3-3-3-3-3-3-3-3-|-0-0-0-0-0-0-0-0-|-8-8-8-8-8-8-8-8-|-8-8-8-8-8-8-8-8-|
         PM                 PM              PM                 PM  


[Chorus 1]

Guitar 1
e|-----------------|-----------------|--------------------------|-----------------|
B|-----------------|-----------------|--------------------------|-----------------|
G|-----------------|-----------------|--------------------------|-----------------|
D|-2-2-2-2-2-2-2-2-|-2-2-2-2-2-2-2-2-|-/-9--9--9--9--9--9--9--9-|-4-4-4-4-4-4-4-4-| (x3)
A|-3-3-3-3-3-3-3-3-|-3-3-3-3-3-3-3-3-|-/10-10-10-10-10-10-10-10-|-5-5-5-5-5-5-5-5-|
E|-----------------|-----------------|--------------------------|-----------------|

e|-----------------|-----------------|-----------------|
B|-----------------|-----------------|-----------------|
G|-----------------|-----------------|-----------------|
D|-2-2-2-2-2-2-2-2-|-2-2-2-2-2-2-2-2-|-4-4-4-4-4-4-4-4-| 
A|-3-3-3-3-3-3-3-3-|-3-3-3-3-3-3-3-3-|-5-5-5-5-5-5-5-5-|
E|-----------------|-----------------|-----------------|


[Bridge 1]

Guitar 1
e|-----------------|-----------------|-----------------|-----------------|
B|-----------------|-----------------|-----------------|-----------------|
G|-----------------|-----------------|-----------------|-----------------|
D|-----------------|-2-2-2-2-2-2-2-2-|-----------------|-----------------| (x2)
A|-2-2-2-2-2-2-2-2-|-2-2-2-2-2-2-2-2-|-7-7-7-7-7-7-7-7-|-7-7-7-7-7-7-7-7-|
E|-3-3-3-3-3-3-3-3-|-0-0-0-0-0-0-0-0-|-8-8-8-8-8-8-8-8-|-8-8-8-8-8-8-8-8-|
         PM                 PM              PM                 PM  


[Verse 2]

Guitar 1
e|-----------------|-----------------|-----------------|-----------------|
B|-----------------|-----------------|-----------------|-----------------|
G|-----------------|-----------------|-----------------|-----------------|
D|-----------------|-2-2-2-2-2-2-2-2-|-----------------|-----------------| (x2)
A|-2-2-2-2-2-2-2-2-|-2-2-2-2-2-2-2-2-|-7-7-7-7-7-7-7-7-|-7-7-7-7-7-7-7-7-|
E|-3-3-3-3-3-3-3-3-|-0-0-0-0-0-0-0-0-|-8-8-8-8-8-8-8-8-|-8-8-8-8-8-8-8-8-|
         PM                 PM              PM                 PM  

Guitar 1 and 2
e|-----------------|-----------------|-----------------|-----------------|
B|-----------------|-----------------|-----------------|-----------------|
G|-----------------|-----------------|-----------------|-----------------|
D|-----------------|-2-2-2-2-2-2-2-2-|-----------------|-----------------| (x2)
A|-2-2-2-2-2-2-2-2-|-2-2-2-2-2-2-2-2-|-7-7-7-7-7-7-7-7-|-7-7-7-7-7-7-7-7-|
E|-3-3-3-3-3-3-3-3-|-0-0-0-0-0-0-0-0-|-8-8-8-8-8-8-8-8-|-8-8-8-8-8-8-8-8-|
         PM                 PM              PM                 PM  


[Chorus 2]

Guitar 1
e|-----------------|-----------------|--------------------------|-----------------|
B|-----------------|-----------------|--------------------------|-----------------|
G|-----------------|-----------------|--------------------------|-----------------|
D|-2-2-2-2-2-2-2-2-|-2-2-2-2-2-2-2-2-|-/-9--9--9--9--9--9--9--9-|-4-4-4-4-4-4-4-4-| (x3)
A|-3-3-3-3-3-3-3-3-|-3-3-3-3-3-3-3-3-|-/10-10-10-10-10-10-10-10-|-5-5-5-5-5-5-5-5-|
E|-----------------|-----------------|--------------------------|-----------------|

e|-----------------|-----------------|-----------------|
B|-----------------|-----------------|-----------------|
G|-----------------|-----------------|-----------------|
D|-2-2-2-2-2-2-2-2-|-2-2-2-2-2-2-2-2-|-4-4-4-4-4-4-4-4-| 
A|-3-3-3-3-3-3-3-3-|-3-3-3-3-3-3-3-3-|-5-5-5-5-5-5-5-5-|
E|-----------------|-----------------|-----------------|

Guitar 2
e|-----------------|-----------------|-----------------|-----------------|
B|-----------------|-----------------|-----------------|-----------------|
G|-----------------|-----------------|-----------------|-----------------|
D|-2-2-2-2-2-2-2-2-|-2-2-2-2-2-2-2-2-|-----------------|-4-4-4-4-4-4-4-4-| (x3)
A|-3-3-3-3-3-3-3-3-|-3-3-3-3-3-3-3-3-|-2-2-2-2-2-2-2-2-|-5-5-5-5-5-5-5-5-|
E|-----------------|-----------------|-3-3-3-3-3-3-3-3-|-----------------|

e|-----------------|-----------------|-----------------|
B|-----------------|-----------------|-----------------|
G|-----------------|-----------------|-----------------|
D|-2-2-2-2-2-2-2-2-|-2-2-2-2-2-2-2-2-|-4-4-4-4-4-4-4-4-| 
A|-3-3-3-3-3-3-3-3-|-3-3-3-3-3-3-3-3-|-5-5-5-5-5-5-5-5-|
E|-----------------|-----------------|-----------------|


[Solo]

Guitar 1
e|-----------------|-----------------|--------------------------|-----------------|
B|-----------------|-----------------|--------------------------|-----------------|
G|-----------------|-----------------|--------------------------|-----------------|
D|-2-2-2-2-2-2-2-2-|-2-2-2-2-2-2-2-2-|-/-9--9--9--9--9--9--9--9-|-4-4-4-4-4-4-4-4-| (x3)
A|-3-3-3-3-3-3-3-3-|-3-3-3-3-3-3-3-3-|-/10-10-10-10-10-10-10-10-|-5-5-5-5-5-5-5-5-|
E|-----------------|-----------------|--------------------------|-----------------|

e|-----------------|-----------------|-----------------|
B|-----------------|-----------------|-----------------|
G|-----------------|-----------------|-----------------|
D|-2-2-2-2-2-2-2-2-|-2-2-2-2-2-2-2-2-|-4-4-4-4-4-4-4-4-| 
A|-3-3-3-3-3-3-3-3-|-3-3-3-3-3-3-3-3-|-5-5-5-5-5-5-5-5-|
E|-----------------|-----------------|-----------------|

Guitar 2
e|----------------------|-------------------------|-12-12-12-12-12-12-12-12-12-12-12-12--10-10-10-10-|
B|-12-12-12-12-12-12-12-|-10h12-12-12-12-12-12-12-|--------------------------------------------------|
G|----------------------|-------------------------|--------------------------------------------------|
D|----------------------|-------------------------|--------------------------------------------------|
A|----------------------|-------------------------|--------------------------------------------------|
E|----------------------|-------------------------|--------------------------------------------------|

e|----------------------|-------------------------|-------------------------|-------------------------|
B|-12-12-12-12-12-12-12-|-10h12-12-12-12-12-12-12-|-12-12-12-12-12-12-12-12-|-10-10-10-10-10-10-10-10-|
G|----------------------|-------------------------|-------------------------|-------------------------|
D|----------------------|-------------------------|-------------------------|-------------------------|
A|----------------------|-------------------------|-------------------------|-------------------------|
E|----------------------|-------------------------|-------------------------|-------------------------|

e|----------------------|-------------------------|-12-12-12-12-12-12-12-12-12-12-12-12--10-10-10-10-|
B|-12-12-12-12-12-12-12-|-10h12-12-12-12-12-12-12-|--------------------------------------------------|
G|----------------------|-------------------------|--------------------------------------------------|
D|----------------------|-------------------------|--------------------------------------------------|
A|----------------------|-------------------------|--------------------------------------------------|
E|----------------------|-------------------------|--------------------------------------------------|

e|----------------------|-------------------------|-12-12-12-12-12-12-12-12-12-12-12-12--10-|
B|-12-12-12-12-12-12-12-|-10h12-12-12-12-12-12-12-|-----------------------------------------|
G|----------------------|-------------------------|-----------------------------------------|
D|----------------------|-------------------------|-----------------------------------------|
A|----------------------|-------------------------|-----------------------------------------|
E|----------------------|-------------------------|-----------------------------------------|


[Bridge 2]

Guitar 1
e|-----------------|-----------------|-----------------|-----------------|
B|-----------------|-----------------|-----------------|-----------------|
G|-----------------|-----------------|-----------------|-----------------|
D|-----------------|-2-2-2-2-2-2-2-2-|-----------------|-----------------| 
A|-2-2-2-2-2-2-2-2-|-2-2-2-2-2-2-2-2-|-7-7-7-7-7-7-7-7-|-7-7-7-7-7-7-7-7-|
E|-3-3-3-3-3-3-3-3-|-0-0-0-0-0-0-0-0-|-8-8-8-8-8-8-8-8-|-8-8-8-8-8-8-8-8-|
         PM                 PM              PM                 PM  
e|-----------------|-----------------|-----------------|---|
B|-----------------|-----------------|-----------------|---|
G|-----------------|-----------------|-----------------|---|
D|-----------------|-2-2-2-2-2-2-2-2-|-----------------|---|
A|-2-2-2-2-2-2-2-2-|-2-2-2-2-2-2-2-2-|-7-7-7-7-7-7-7-7-|-7-|
E|-3-3-3-3-3-3-3-3-|-0-0-0-0-0-0-0-0-|-8-8-8-8-8-8-8-8-|-8-|
         PM                 PM              PM          PM  


[Chorus 3]

Guitar 1
e|-----------------|-----------------|--------------------------|-----------------|
B|-----------------|-----------------|--------------------------|-----------------|
G|-----------------|-----------------|--------------------------|-----------------|
D|-2-2-2-2-2-2-2-2-|-2-2-2-2-2-2-2-2-|-/-9--9--9--9--9--9--9--9-|-4-4-4-4-4-4-4-4-| (x3)
A|-3-3-3-3-3-3-3-3-|-3-3-3-3-3-3-3-3-|-/10-10-10-10-10-10-10-10-|-5-5-5-5-5-5-5-5-|
E|-----------------|-----------------|--------------------------|-----------------|

e|-----------------|-----------------|-----------------|
B|-----------------|-----------------|-----------------|
G|-----------------|-----------------|-----------------|
D|-2-2-2-2-2-2-2-2-|-2-2-2-2-2-2-2-2-|-4-4-4-4-4-4-4-4-| 
A|-3-3-3-3-3-3-3-3-|-3-3-3-3-3-3-3-3-|-5-5-5-5-5-5-5-5-|
E|-----------------|-----------------|-----------------|

Guitar 2
e|-----------------|-----------------|-----------------|-----------------|
B|-----------------|-----------------|-----------------|-----------------|
G|-----------------|-----------------|-----------------|-----------------|
D|-2-2-2-2-2-2-2-2-|-2-2-2-2-2-2-2-2-|-----------------|-4-4-4-4-4-4-4-4-| (x3)
A|-3-3-3-3-3-3-3-3-|-3-3-3-3-3-3-3-3-|-2-2-2-2-2-2-2-2-|-5-5-5-5-5-5-5-5-|
E|-----------------|-----------------|-3-3-3-3-3-3-3-3-|-----------------|

e|-----------------|-----------------|-----------------|
B|-----------------|-----------------|-----------------|
G|-----------------|-----------------|-----------------|
D|-2-2-2-2-2-2-2-2-|-2-2-2-2-2-2-2-2-|-4-4-4-4-4-4-4-4-| 
A|-3-3-3-3-3-3-3-3-|-3-3-3-3-3-3-3-3-|-5-5-5-5-5-5-5-5-|
E|-----------------|-----------------|-----------------|


[Outro]

Guitar 1 and 2
e|-----------------|-----------------|-----------------|-----------------|
B|-----------------|-----------------|-----------------|-----------------|
G|-----------------|-----------------|-----------------|-----------------|
D|-----------------|-2-2-2-2-2-2-2-2-|-----------------|-----------------| (x2)
A|-2-2-2-2-2-2-2-2-|-2-2-2-2-2-2-2-2-|-7-7-7-7-7-7-7-7-|-7-7-7-7-7-7-7-7-|
E|-3-3-3-3-3-3-3-3-|-0-0-0-0-0-0-0-0-|-8-8-8-8-8-8-8-8-|-8-8-8-8-8-8-8-8-|
         PM                 PM              PM                 PM  

Guitar 1
e|-----------------|-----------------|-----------------|-----------------|
B|-----------------|-----------------|-----------------|-----------------|
G|-----------------|-----------------|-----------------|-----------------|
D|-----------------|-2-2-2-2-2-2-2-2-|-----------------|-----------------| (x2)
A|-2-2-2-2-2-2-2-2-|-2-2-2-2-2-2-2-2-|-7-7-7-7-7-7-7-7-|-7-7-7-7-7-7-7-7-|
E|-3-3-3-3-3-3-3-3-|-0-0-0-0-0-0-0-0-|-8-8-8-8-8-8-8-8-|-8-8-8-8-8-8-8-8-|
         PM                 PM              PM                 PM  



------------------------------------------------------------------------------------------------
                           5. Don't Fill up on Chips
------------------------------------------------------------------------------------------------
Tuning: Standard

Guitar 1 - Acoustic
Guitar 2 - Electric

[Verse 1]

Guitar 1
e|--8---8--8--8--8--8----8--8--8--8--8-|-3--3-3-3-3-3--3-3-3-3-3-||
B|--8---8--8--8--8--8----8--8--8--8--8-|-3--3-3-3-3-3--3-3-3-3-3-||
G|--9---9--9--9--9--9----9--9--9--9--9-|-4--4-4-4-4-4--4-4-4-4-4-||
D|-10--10-10-10-10-10---10-10-10-10-10-|-5--5-5-5-5-5--5-5-5-5-5-||
A|-------------------------------------|-------------------------||
E|-------------------------------------|-------------------------||
Guitar 2                                                          |
e|--8----------------------------------|-3-----------------------||
B|--8----------------------------------|-3-----------------------||
G|--9----------------------------------|-4-----------------------||
D|-10----------------------------------|-5-----------------------||
A|-------------------------------------|-------------------------||
E|-------------------------------------|-------------------------||


Guitar 1
e|-1--1-1-1-1-1--1-1-1-1-1-|-0--0-0-0-0-0--0-0-0-0-0-||
B|-1--1-1-1-1-1--1-1-1-1-1-|-1--1-1-1-1-1--1-1-1-1-1-||
G|-2--2-2-2-2-2--2-2-2-2-2-|-0--0-0-0-0-0--0-0-0-0-0-||
D|-3--3-3-3-3-3--3-3-3-3-3-|-2--2-2-2-2-2--2-2-2-2-2-||
A|-------------------------|-3--3-3-3-3-3--3-3-3-3-3-||
E|-------------------------|-------------------------||
Guitar 2                                              |
e|-1-----------------------|-0-----------------------||
B|-1-----------------------|-1-----------------------||
G|-2-----------------------|-0-----------------------||
D|-3-----------------------|-2-----------------------||
A|-------------------------|-3-----------------------||
E|-------------------------|-------------------------||


Guitar 1
e|--8---8--8--8--8--8----8--8--8--8--8-|-3--3-3-3-3-3--3-3-3-3-3-||
B|--8---8--8--8--8--8----8--8--8--8--8-|-3--3-3-3-3-3--3-3-3-3-3-||
G|--9---9--9--9--9--9----9--9--9--9--9-|-4--4-4-4-4-4--4-4-4-4-4-||
D|-10--10-10-10-10-10---10-10-10-10-10-|-5--5-5-5-5-5--5-5-5-5-5-||
A|-------------------------------------|-------------------------||
E|-------------------------------------|-------------------------||
Guitar 2                                                          |
e|--8----------------------------------|-3-----------------------||
B|--8----------------------------------|-3-----------------------||
G|--9----------------------------------|-4-----------------------||
D|-10----------------------------------|-5-----------------------||
A|-------------------------------------|-------------------------||
E|-------------------------------------|-------------------------||


Guitar 1
e|-1--1-1-1-1-1--1-1-1-1-1-|-0--0-0-0-0-0--0-0-0-0-0-||
B|-1--1-1-1-1-1--1-1-1-1-1-|-1--1-1-1-1-1--1-1-1-1-1-||
G|-2--2-2-2-2-2--2-2-2-2-2-|-0--0-0-0-0-0--0-0-0-0-0-||
D|-3--3-3-3-3-3--3-3-3-3-3-|-2--2-2-2-2-2--2-2-2-2-2-||
A|-------------------------|-3--3-3-3-3-3--3-3-3-3-3-||
E|-------------------------|-------------------------||
Guitar 2                                              |
e|-1-----------------------|-0-----------------------||
B|-1-----------------------|-1-----------------------||
G|-2-----------------------|-0-----------------------||
D|-3-----------------------|-2-----------------------||
A|-------------------------|-3-----------------------||
E|-------------------------|-------------------------||


Guitar 1
e|-1--1-1-1-1-1--1-1-1-1-1-|-0--0-0-0-0-0--0-0-0-0-0-|-1--1-1-1-1-1--1-1-1-1-1-|--3--||
B|-1--1-1-1-1-1--1-1-1-1-1-|-1--1-1-1-1-1--1-1-1-1-1-|-1--1-1-1-1-1--1-1-1-1-1-|--3--||
G|-2--2-2-2-2-2--2-2-2-2-2-|-0--0-0-0-0-0--0-0-0-0-0-|-2--2-2-2-2-2--2-2-2-2-2-|--4--||
D|-3--3-3-3-3-3--3-3-3-3-3-|-2--2-2-2-2-2--2-2-2-2-2-|-3--3-3-3-3-3--3-3-3-3-3-|--5--||
A|-------------------------|-3--3-3-3-3-3--3-3-3-3-3-|-------------------------|-----||
E|-------------------------|-------------------------|-------------------------|-----||
Guitar 2                                                                              | 
e|-1-----------------------|-0-----------------------|-1-----------------------|--3--||
B|-1-----------------------|-1-----------------------|-1-----------------------|--3--||
G|-2-----------------------|-0-----------------------|-2-----------------------|--4--||
D|-3-----------------------|-2-----------------------|-3-----------------------|--5--||
A|-------------------------|-3-----------------------|-------------------------|-----||
E|-------------------------|-------------------------|-------------------------|-----||


[Chorus 1]

Guitar 1
e|-0--0-0-0-0--0-|--3--3-3-3-3-3-3-|---------------|--------------|
B|-1--1-1-1-1--1-|--3--3-3-3-3-3-3-|---------------|--------------|
G|-0--0-0-0-0--0-|--0--0-0-0-0-0-0-|---------------|--------------|
D|-2--2-2-2-2--2-|--0--0-0-0-0-0-0-|-2--2-2-2-2--2-|-3--3-3-3-3-3-| (x4)
A|-3--3-3-3-3--3-|--2--2-2-2-2-2-2-|-2--2-2-2-2--2-|-3--3-3-3-3-3-|
E|---------------|--3--3-3-3-3-3-3-|-0--0-0-0-0--0-|-1--1-1-1-1-1-|

Guitar 1
e|--8---8--8--8---3--3-3-3-|-1--1-1-1--0--0-0-0-|      |
B|--8---8--8--8---3--3-3-3-|-1--1-1-1--1--1-1-1-|      |
G|--9---9--9--9---4--4-4-4-|-2--2-2-2--0--0-0-0-|      |
D|-10--10-10-10---5--5-5-5-|-3--3-3-3--2--2-2-2-| (x2) |
A|-------------------------|-----------3--3-3-3-|      |
E|-------------------------|--------------------|      |
Guitar 2                                               |
e|------------------------|---------------------|      |
B|----3---------1---------|----3----------------|      |
G|--5----4----2----0------|--5----4----2-5-4--5-|      |
D|---------------------2--|---------------------|      |
A|------------------------|---------------------|      |
E|------------------------|---------------------|      |


[Verse 2]

Guitar 1
e|--8---8--8--8--8--8----8--8--8--8--8-|-3--3-3-3-3-3--3-3-3-3-3-||
B|--8---8--8--8--8--8----8--8--8--8--8-|-3--3-3-3-3-3--3-3-3-3-3-||
G|--9---9--9--9--9--9----9--9--9--9--9-|-4--4-4-4-4-4--4-4-4-4-4-||
D|-10--10-10-10-10-10---10-10-10-10-10-|-5--5-5-5-5-5--5-5-5-5-5-||
A|-------------------------------------|-------------------------||
E|-------------------------------------|-------------------------||
Guitar 2                                                          |
e|--8----------------------------------|-3-----------------------||
B|--8----------------------------------|-3-----------------------||
G|--9----------------------------------|-4-----------------------||
D|-10----------------------------------|-5-----------------------||
A|-------------------------------------|-------------------------||
E|-------------------------------------|-------------------------||


Guitar 1
e|-1--1-1-1-1-1--1-1-1-1-1-|-0--0-0-0-0-0--0-0-0-0-0-||
B|-1--1-1-1-1-1--1-1-1-1-1-|-1--1-1-1-1-1--1-1-1-1-1-||
G|-2--2-2-2-2-2--2-2-2-2-2-|-0--0-0-0-0-0--0-0-0-0-0-||
D|-3--3-3-3-3-3--3-3-3-3-3-|-2--2-2-2-2-2--2-2-2-2-2-||
A|-------------------------|-3--3-3-3-3-3--3-3-3-3-3-||
E|-------------------------|-------------------------||
Guitar 2                                              |
e|-1-----------------------|-0-----------------------||
B|-1-----------------------|-1-----------------------||
G|-2-----------------------|-0-----------------------||
D|-3-----------------------|-2-----------------------||
A|-------------------------|-3-----------------------||
E|-------------------------|-------------------------||


Guitar 1
e|--8---8--8--8--8--8----8--8--8--8--8-|-3--3-3-3-3-3--3-3-3-3-3-||
B|--8---8--8--8--8--8----8--8--8--8--8-|-3--3-3-3-3-3--3-3-3-3-3-||
G|--9---9--9--9--9--9----9--9--9--9--9-|-4--4-4-4-4-4--4-4-4-4-4-||
D|-10--10-10-10-10-10---10-10-10-10-10-|-5--5-5-5-5-5--5-5-5-5-5-||
A|-------------------------------------|-------------------------||
E|-------------------------------------|-------------------------||
Guitar 2                                                          |
e|--8----------------------------------|-3-----------------------||
B|--8----------------------------------|-3-----------------------||
G|--9----------------------------------|-4-----------------------||
D|-10----------------------------------|-5-----------------------||
A|-------------------------------------|-------------------------||
E|-------------------------------------|-------------------------||


Guitar 1
e|-1--1-1-1-1-1--1-1-1-1-1-|-0--0-0-0-0-0--0-0-0-0-0-||
B|-1--1-1-1-1-1--1-1-1-1-1-|-1--1-1-1-1-1--1-1-1-1-1-||
G|-2--2-2-2-2-2--2-2-2-2-2-|-0--0-0-0-0-0--0-0-0-0-0-||
D|-3--3-3-3-3-3--3-3-3-3-3-|-2--2-2-2-2-2--2-2-2-2-2-||
A|-------------------------|-3--3-3-3-3-3--3-3-3-3-3-||
E|-------------------------|-------------------------||
Guitar 2                                              |
e|-1-----------------------|-0-----------------------||
B|-1-----------------------|-1-----------------------||
G|-2-----------------------|-0-----------------------||
D|-3-----------------------|-2-----------------------||
A|-------------------------|-3-----------------------||
E|-------------------------|-------------------------||


Guitar 1
e|-1--1--1--1--1--1--1--1-|-0--0--0--0--0--0--0--0-|-1--1--1--1--1--1--1--1-|-0--0--0--0--0--0--0--0-|
B|-1--1--1--1--1--1--1--1-|-1--1--1--1--1--1--1--1-|-1--1--1--1--1--1--1--1-|-1--1--1--1--1--1--1--1-|
G|-2--2--2--2--2--2--2--2-|-0--0--0--0--0--0--0--0-|-2--2--2--2--2--2--2--2-|-0--0--0--0--0--0--0--0-|
D|-3--3--3--3--3--3--3--3-|-2--2--2--2--2--2--2--2-|-3--3--3--3--3--3--3--3-|-2--2--2--2--2--2--2--2-|
A|------------------------|-3--3--3--3--3--3--3--3-|------------------------|-3--3--3--3--3--3--3--3-|
E|------------------------|------------------------|------------------------|------------------------|

e|-1--1--1--1--1--1--1--1-|-0--0--0--0--0--0--0--0-|-1--1--1--1--1--1--1--1-|-3--3--3--3--3--3--3--3-|
B|-1--1--1--1--1--1--1--1-|-1--1--1--1--1--1--1--1-|-1--1--1--1--1--1--1--1-|-3--3--3--3--3--3--3--3-|
G|-2--2--2--2--2--2--2--2-|-0--0--0--0--0--0--0--0-|-2--2--2--2--2--2--2--2-|-4--4--4--4--4--4--4--4-|
D|-3--3--3--3--3--3--3--3-|-2--2--2--2--2--2--2--2-|-3--3--3--3--3--3--3--3-|-5--5--5--5--5--5--5--5-|
A|------------------------|-3--3--3--3--3--3--3--3-|------------------------|------------------------|
E|------------------------|------------------------|------------------------|------------------------|


[Chorus 2]

Guitar 1
e|-0--0-0-0-0--0-|--3--3-3-3-3-3-3-|---------------|--------------|
B|-1--1-1-1-1--1-|--3--3-3-3-3-3-3-|---------------|--------------|
G|-0--0-0-0-0--0-|--0--0-0-0-0-0-0-|---------------|--------------|
D|-2--2-2-2-2--2-|--0--0-0-0-0-0-0-|-2--2-2-2-2--2-|-3--3-3-3-3-3-| (x4)
A|-3--3-3-3-3--3-|--2--2-2-2-2-2-2-|-2--2-2-2-2--2-|-3--3-3-3-3-3-|
E|---------------|--3--3-3-3-3-3-3-|-0--0-0-0-0--0-|-1--1-1-1-1-1-|


Guitar 1
e|--8---8--8--8---3--3-3-3-|-1--1-1-1--0--0-0-0-|      |
B|--8---8--8--8---3--3-3-3-|-1--1-1-1--1--1-1-1-|      |
G|--9---9--9--9---4--4-4-4-|-2--2-2-2--0--0-0-0-|      |
D|-10--10-10-10---5--5-5-5-|-3--3-3-3--2--2-2-2-| (x2) |
A|-------------------------|-----------3--3-3-3-|      |
E|-------------------------|--------------------|      |
Guitar 2                                               |
e|------------------------|---------------------|      |
B|----3---------1---------|----3----------------|      |
G|--5----4----2----0------|--5----4----2-5-4--5-|      |
D|---------------------2--|---------------------|      |
A|------------------------|---------------------|      |
E|------------------------|---------------------|      |


[Chorus 3]

Guitar 1
e|---0---|-3--3-3-3---3--3-3-3-|-3--3-3-3---3--3-3-3-|---------------------|---------|
B|---1---|-3--3-3-3---3--3-3-3-|-3--3-3-3---3--3-3-3-|---------------------|---------|
G|---0---|-0--0-0-0---0--0-0-0-|-0--0-0-0---0--0-0-0-|---------------------|---------|
D|---2---|-0--0-0-0---0--0-0-0-|-0--0-0-0---0--0-0-0-|-2--2-2-2---2--2-2-2-|--3---5--|
A|---3---|-2--2-2-2---2--2-2-2-|-2--2-2-2---2--2-2-2-|-2--2-2-2---2--2-2-2-|--3---5--|
E|-------|-3--3-3-3---3--3-3-3-|-3--3-3-3---3--3-3-3-|-0--0-0-0---0--0-0-0-|--1---3--|

e|-0--0-0-0-0--0-|--3--3-3-3-3-3-3-|---------------|--------------|
B|-1--1-1-1-1--1-|--3--3-3-3-3-3-3-|---------------|--------------|
G|-0--0-0-0-0--0-|--0--0-0-0-0-0-0-|---------------|--------------|
D|-2--2-2-2-2--2-|--0--0-0-0-0-0-0-|-2--2-2-2-2--2-|-3--3-3-3-3-3-| (x4)
A|-3--3-3-3-3--3-|--2--2-2-2-2-2-2-|-2--2-2-2-2--2-|-3--3-3-3-3-3-|
E|---------------|--3--3-3-3-3-3-3-|-0--0-0-0-0--0-|-1--1-1-1-1-1-|


[Outro]

Guitar 1
e|--8---8--8--8---3--3-3-3-|-1--1-1-1--0--0-0-0-|      |
B|--8---8--8--8---3--3-3-3-|-1--1-1-1--1--1-1-1-|      |
G|--9---9--9--9---4--4-4-4-|-2--2-2-2--0--0-0-0-|      |
D|-10--10-10-10---5--5-5-5-|-3--3-3-3--2--2-2-2-| (x2) |
A|-------------------------|-----------3--3-3-3-|      |
E|-------------------------|--------------------|      |
Guitar 2                                               |
e|------------------------|---------------------|      |
B|----3---------1---------|----3----------------|      |
G|--5----4----2----0------|--5----4----2-5-4--5-|      |
D|---------------------2--|---------------------|      |
A|------------------------|---------------------|      |
E|------------------------|---------------------|      |


Guitar 1
e|--8---8--8--8---3--3-3-3-|-1--1-1-1-|-0--0-0-0-||    
B|--8---8--8--8---3--3-3-3-|-1--1-1-1-|-1--1-1-1-||
G|--9---9--9--9---4--4-4-4-|-2--2-2-2-|-0--0-0-0-||
D|-10--10-10-10---5--5-5-5-|-3--3-3-3-|-2--2-2-2-||
A|-------------------------|----------|-3--3-3-3-||
E|-------------------------|----------|----------||
Guitar 2                                          | 
e|-------------------------|---------------------||
B|----3--------------------|---1-----------------||
G|--5----4-----------------|-2----0--------------||
D|-------------------------|----------2----------||
A|-------------------------|---------------------||
E|-------------------------|---------------------||


Guitar 1
e|--8---8--8--8---3--3-3-3-|-1--1-1-1-|--0--||
B|--8---8--8--8---3--3-3-3-|-1--1-1-1-|--1--||
G|--9---9--9--9---4--4-4-4-|-2--2-2-2-|--0--||
D|-10--10-10-10---5--5-5-5-|-3--3-3-3-|--2--||
A|-------------------------|----------|--3--||
E|-------------------------|----------|-----||
Guitar 2                                     |      
e|-------------------------|----------------|| 
B|----3--------------------|----------------|| 
G|--5----4-----------------|-2-5-4---5------||
D|-------------------------|----------------||
A|-------------------------|----------------||
E|-------------------------|----------------||



------------------------------------------------------------------------------------------------
                                     6. Grand Finale
------------------------------------------------------------------------------------------------
Tuning: Standard

[Intro]

e|-------------------|------------------|
B|-------------------|------------------|
G|-------------------|------------------|
D|-------------------|---------------1--|
A|-------------------|---------------2--|
E|--0---2---/4---/7--|--0---2---/4---2--|


[Verse 1]

e|-----------------|-----------------|-----------------|-------------------------|
B|-----------------|-----------------|-----------------|-------------------------|
G|-----------------|-----------------|-----------------|-------------------------|
D|-9-9-9-9-9-9-9-9-|-8-8-8-8-8-8-8-8-|-9-9-9-9-9-9-9-9-|-13-13-13-13-13-13-13-13-|
A|-----------------|-----------------|-----------------|-------------------------|
E|-----------------|-----------------|-----------------|-------------------------|
         PM                 PM                PM                   PM
e|-----------------|-------------------------|-------------------------|
B|-----------------|-------------------------|-------------------------|
G|-----------------|-------------------------|-------------------------|
D|-9-9-9-9-9-9-9-9-|-11-11-11-11-11-11-11-11-|-13-13-13-13-13-13-13-13-|
A|-----------------|-------------------------|-------------------------|
E|-----------------|-------------------------|-------------------------|
         PM                    PM                        PM


[Pre-Chorus 1]

e|-----------------|-----------------|-----------------|-------------------------|
B|-----------------|-----------------|-----------------|-------------------------|
G|-----------------|-----------------|-----------------|-------------------------|
D|-9-9-9-9-9-9-9-9-|-8-8-8-8-8-8-8-8-|-9-9-9-9-9-9-9-9-|-13-13-13-13-13-13-13-13-|
A|-----------------|-----------------|-----------------|-------------------------|
E|-----------------|-----------------|-----------------|-------------------------|

e|-----------------|-------------------------|-------------------------|-------------------------|
B|-----------------|-------------------------|-------------------------|-------------------------|
G|-----------------|-------------------------|-------------------------|-------------------------|
D|-9-9-9-9-9-9-9-9-|-11-11-11-11-11-11-11-11-|-13-13-13-13-13-13-13-13-|-13-13-13-13-13-13-13-13-|
A|-----------------|-------------------------|-------------------------|-------------------------|
E|-----------------|-------------------------|-------------------------|-------------------------|


[Chorus 1]

e|-----------------|-----------------|-----------------|-----------------|
B|-----------------|-----------------|-----------------|-----------------|
G|-----------------|-----------------|-----------------|-----------------|
D|-2-2-2-2-2-2-2-2-|-4-4-4-4-4-4-4-4-|-6-6-6-6-6-6-6-6-|-9-9-9-9-9-9-9-9-| (x2)
A|-2-2-2-2-2-2-2-2-|-4-4-4-4-4-4-4-4-|-6-6-6-6-6-6-6-6-|-9-9-9-9-9-9-9-9-|
E|-0-0-0-0-0-0-0-0-|-2-2-2-2-2-2-2-2-|-4-4-4-4-4-4-4-4-|-7-7-7-7-7-7-7-7-|


[Verse 2]

e|-------------------|--------------|
B|-------------------|--------------|
G|-------------------|--------------|
D|-------------------|--------------|
A|-------------------|--------------|
E|--0---2---/4---/7--|--0---2---/4--|


[Pre-Chorus 2]

e|-----------------|-----------------|-----------------|-------------------------|
B|-----------------|-----------------|-----------------|-------------------------|
G|-----------------|-----------------|-----------------|-------------------------|
D|-9-9-9-9-9-9-9-9-|-8-8-8-8-8-8-8-8-|-9-9-9-9-9-9-9-9-|-13-13-13-13-13-13-13-13-|
A|-----------------|-----------------|-----------------|-------------------------|
E|-----------------|-----------------|-----------------|-------------------------|

e|-----------------|-------------------------|-------------------------|-------------------------|
B|-----------------|-------------------------|-------------------------|-------------------------|
G|-----------------|-------------------------|-------------------------|-------------------------|
D|-9-9-9-9-9-9-9-9-|-11-11-11-11-11-11-11-11-|-13-13-13-13-13-13-13-13-|-13-13-13-13-13-13-13-13-|
A|-----------------|-------------------------|-------------------------|-------------------------|
E|-----------------|-------------------------|-------------------------|-------------------------|


[Chorus 2]

e|-----------------|-----------------|-----------------|-----------------|
B|-----------------|-----------------|-----------------|-----------------|
G|-----------------|-----------------|-----------------|-----------------|
D|-2-2-2-2-2-2-2-2-|-4-4-4-4-4-4-4-4-|-6-6-6-6-6-6-6-6-|-9-9-9-9-9-9-9-9-| (x2)
A|-2-2-2-2-2-2-2-2-|-4-4-4-4-4-4-4-4-|-6-6-6-6-6-6-6-6-|-9-9-9-9-9-9-9-9-|
E|-0-0-0-0-0-0-0-0-|-2-2-2-2-2-2-2-2-|-4-4-4-4-4-4-4-4-|-7-7-7-7-7-7-7-7-|

e|-----------------|-----------------|-----------------|-------------------------|
B|-----------------|-----------------|-----------------|-------------------------|
G|-----------------|-----------------|-----------------|-------------------------|
D|-9-9-9-9-9-9-9-9-|-8-8-8-8-8-8-8-8-|-9-9-9-9-9-9-9-9-|-13-13-13-13-13-13-13-13-|
A|-----------------|-----------------|-----------------|-------------------------|
E|-----------------|-----------------|-----------------|-------------------------|

e|-----------------|-------------------------|-------------------------|-------------------------|
B|-----------------|-------------------------|-------------------------|-------------------------|
G|-----------------|-------------------------|-------------------------|-------------------------|
D|-9-9-9-9-9-9-9-9-|-11-11-11-11-11-11-11-11-|-13-13-13-13-13-13-13-13-|-13-13-13-13-13-13-13-13-|
A|-----------------|-------------------------|-------------------------|-------------------------|
E|-----------------|-------------------------|-------------------------|-------------------------|


[Bridge]

e|---------|---------|---------|---------|
B|---------|---------|---------|---------|
G|---------|---------|---------|---------|
D|--2---2--|--4---4--|--6---6--|--9---9--|
A|--2---2--|--4---4--|--6---6--|--9---9--|
E|--0---0--|--2---2--|--4---4--|--7---7--|

e|---------|---------|-----------------|------------------|
B|---------|---------|-----------------|------------------|
G|---------|---------|-----------------|------------------|
D|--2---2--|--4---4--|-6-6-6-6-6-6-6-6-|-9-9-9-9-9--x--x--|
A|--2---2--|--4---4--|-6-6-6-6-6-6-6-6-|-9-9-9-9-9--x--x--|
E|--0---0--|--2---2--|-4-4-4-4-4-4-4-4-|-7-7-7-7-7--x--x--|


[Chorus 3]

e|-----------------|-----------------|-----------------|-----------------|
B|-----------------|-----------------|-----------------|-----------------|
G|-----------------|-----------------|-----------------|-----------------|
D|-2-2-2-2-2-2-2-2-|-4-4-4-4-4-4-4-4-|-6-6-6-6-6-6-6-6-|-9-9-9-9-9-9-9-9-| (x2)
A|-2-2-2-2-2-2-2-2-|-4-4-4-4-4-4-4-4-|-6-6-6-6-6-6-6-6-|-9-9-9-9-9-9-9-9-|
E|-0-0-0-0-0-0-0-0-|-2-2-2-2-2-2-2-2-|-4-4-4-4-4-4-4-4-|-7-7-7-7-7-7-7-7-|

e|-----------------|-----------------|-----------------|-------------------------|
B|-----------------|-----------------|-----------------|-------------------------|
G|-----------------|-----------------|-----------------|-------------------------|
D|-9-9-9-9-9-9-9-9-|-8-8-8-8-8-8-8-8-|-9-9-9-9-9-9-9-9-|-13-13-13-13-13-13-13-13-|
A|-----------------|-----------------|-----------------|-------------------------|
E|-----------------|-----------------|-----------------|-------------------------|

e|-----------------|-------------------------|-------------------------|-------------------------|
B|-----------------|-------------------------|-------------------------|-------------------------|
G|-----------------|-------------------------|-------------------------|-------------------------|
D|-9-9-9-9-9-9-9-9-|-11-11-11-11-11-11-11-11-|-13-13-13-13-13-13-13-13-|-13-13-13-13-13-13-13-13-|
A|-----------------|-------------------------|-------------------------|-------------------------|
E|-----------------|-------------------------|-------------------------|-------------------------|


[Outro]

e|-----------------|-----------------|-----------------|-------------------------|
B|-----------------|-----------------|-----------------|-------------------------|
G|-----------------|-----------------|-----------------|-------------------------|
D|-9-9-9-9-9-9-9-9-|-8-8-8-8-8-8-8-8-|-9-9-9-9-9-9-9-9-|-13-13-13-13-13-13-13-13-|
A|-----------------|-----------------|-----------------|-------------------------|
E|-----------------|-----------------|-----------------|-------------------------|

e|-----------------|-------------------------|-------------------------|-------------------------|
B|-----------------|-------------------------|-------------------------|-------------------------|
G|-----------------|-------------------------|-------------------------|-------------------------|
D|-9-9-9-9-9-9-9-9-|-11-11-11-11-11-11-11-11-|-13-13-13-13-13-13-13-13-|-13-13-13-13-13-13-13-13-|
A|-----------------|-------------------------|-------------------------|-------------------------|
E|-----------------|-------------------------|-------------------------|-------------------------|



------------------------------------------------------------------------------------------------
                                    7. Trampoline
------------------------------------------------------------------------------------------------
Tuning: Standard

Guitar 1 - Acoustic
Guitar 2 - Electric

[Intro]

Guitar 2
e|-15-----12-----10--------10-|----10-12--------|-15-----12-----10--------10-|------7--|
B|----15-----13-----10--13----|-13--------12-13-|----15-----13-----10--13----|----8----|
G|----------------------------|-----------------|----------------------------|--9------|
D|----------------------------|-----------------|----------------------------|---------|
A|----------------------------|-----------------|----------------------------|---------|
E|----------------------------|-----------------|----------------------------|---------|


[Verse 1]

Guitar 1
e|-------------|---------------|-------------|---------------|
B|-------------|---------------|-------------|---------------|
G|-------------|--5--5-5-------|-------------|--5--5-5-------|
D|--2--2--2-2--|--7--7-7--5-7--|--2--2--2-2--|--7--7-7--5-7--|
A|--3--3--3-3--|--0--0-0--0-0--|--3--3--3-3--|--0--0-0--0-0--|
E|-------------|---------------|-------------|---------------|

e|----------------|---------------|----------------|---------------|
B|----------------|---------------|----------------|---------------|
G|--2--2--2--2-2--|---------------|--2--2--2--2-2--|---------------|
D|--3--3--3--3-3--|--2--2-2--2-2--|--3--3--3--3-3--|--2--2-2--2-2--|
A|--3--3--3--3-3--|--3--3-3--3-3--|--3--3--3--3-3--|--3--3-3--3-3--|
E|--1--1--1--1-1--|---------------|--1--1--1--1-1--|---------------|


[Verse 2]

Guitar 1
e|----------------------|-------------|----------------------|-------------||
B|----------------------|-------------|----------------------|-------------||
G|----------------------|--7-7---7--7-|----------------------|--7-7---7--7-||
D|-2-2--2--2-2-2--2--2--|--5-5---5--5-|-2-2--2--2-2-2--2--2--|--5-5---5--5-||
A|-3-3--3--3-3-3--3--3--|--0-0---0--0-|-3-3--3--3-3-3--3--3--|--0-0---0--0-||
E|----------------------|-------------|----------------------|-------------||
Guitar 2                                                                    |
e|------------------------------------|------------------------------------||
B|-------5----------5-----------5-----|-------5----------5-----------5-----||
G|------------------------------------|------------------------------------||
D|--5--5----5--5--5----5---7--7----7--|--5--5----5--5--5----5---7--7----7--||
A|------------------------------------|------------------------------------||
E|------------------------------------|------------------------------------||


Guitar 1
e|----------------------|-------------|----------------------|-------------||
B|----------------------|-------------|----------------------|-------------||
G|-2-2--2--2-2-2--2--2--|-------------|-2-2--2--2-2-2--2--2--|-------------||
D|-3-3--3--3-3-3--3--3--|--2-2---2--2-|-3-3--3--3-3-3--3--3--|--2-2---2--2-||
A|-3-3--3--3-3-3--3--3--|--3-3---3--3-|-3-3--3--3-3-3--3--3--|--3-3---3--3-||
E|-1-1--1--1-1-1--1--1--|-------------|-1-1--1--1-1-1--1--1--|-------------||
Guitar 2                                                                    |
e|------------------------------------|------------------------------------||
B|--------5-----------5---------------|--------5-----------5---------------||
G|----------------------------5-------|----------------------------5-------||
D|--3--3-----3--3--3------3---5-------|--3--3-----3--3--3------3---5-------||
A|----------------------------3-------|----------------------------3-------||
E|------------------------------------|------------------------------------||


[Pre-Chorus 1]

Guitar 1
e|----------------------|--------------------|----------------------|--------------------||
B|----------------------|--------------------|----------------------|--------------------||
G|----------------------|--------------------|----------------------|--------------------||
D|-------2------3-------|------5------7------|-------2------3-------|------5------7------||
A|-------2------3-------|------5------7------|-------2------3-------|------5------7------||
E|-------0------1-------|------3------5------|-------0------1-------|------3------5------||
Guitar 2                                                                                  |  
e|-15----12----10-------10-|----10-12--------|-15----12----10-------10-|----10-12--------||
B|----15----13----10-13----|-13--------12-13-|----15----13----10-13----|-13--------12-13-||
G|-------------------------|-----------------|-------------------------|-----------------||
D|-------------------------|-----------------|-------------------------|-----------------||
A|-------------------------|-----------------|-------------------------|-----------------||
E|-------------------------|-----------------|-------------------------|-----------------||


Guitar 1
e|----------------------|--------------------|-------------------------|---------||
B|----------------------|--------------------|-------------------------|---------||
G|----------------------|--------------------|-------------------------|---------||
D|-------2------3-------|------5------7------|-------2--------3--------|----5----||
A|-------2------3-------|------5------7------|-------2--------3--------|----5----||
E|-------0------1-------|------3------5------|-------0--------1--------|----3----||
Guitar 2                                                                          |  
e|-15----12----10-------10-|----10-12--------|-15----12----10-------10-|------7--||
B|----15----13----10-13----|-13--------12-13-|----15----13----10-13----|----8----||
G|-------------------------|-----------------|-------------------------|--9------||
D|-------------------------|-----------------|-------------------------|---------||
A|-------------------------|-----------------|-------------------------|---------||
E|-------------------------|-----------------|-------------------------|---------||


[Chorus 1]

Guitar 1 & 2
e|------------------|------------------|
B|------------------|------------------|
G|-5-5-5-5-5--------|------------------|
D|-5-5-5-5-5--5-5-5-|-7-7-7-7-7--2-2-2-| (x4)
A|-3-3-3-3-3--5-5-5-|-7-7-7-7-7--2-2-2-|
E|------------3-3-3-|-5-5-5-5-5--0-0-0-|


Guitar 1
e|------------------------||
B|------------------------||
G|-----------------5---5--||
D|-----------------5---5--||
A|-----------------3---3--||
E|------------------------||
Guitar 2                   |
e|------------------------||
B|------------------------||
G|------------------5---5-||
D|-----2-------2----5---5-||
A|------------------3---3-||
E|-1-1---1-1-1---1--------||



[Verse 3]

Guitar 1
e|----------------------|-------------|----------------------|-------------|
B|----------------------|-------------|----------------------|-------------|
G|----------------------|--7-7---7--7-|----------------------|--7-7---7--7-|
D|-2-2--2--2-2-2--2--2--|--5-5---5--5-|-2-2--2--2-2-2--2--2--|--5-5---5--5-|
A|-3-3--3--3-3-3--3--3--|--0-0---0--0-|-3-3--3--3-3-3--3--3--|--0-0---0--0-|
E|----------------------|-------------|----------------------|-------------|


Guitar 1
e|----------------------|-------------|----------------------|-------------||
B|----------------------|-------------|----------------------|-------------||
G|-2-2--2--2-2-2--2--2--|-------------|-2-2--2--2-2-2--2--2--|-------------||
D|-3-3--3--3-3-3--3--3--|--2-2---2--2-|-3-3--3--3-3-3--3--3--|--2-2---2--2-||
A|-3-3--3--3-3-3--3--3--|--3-3---3--3-|-3-3--3--3-3-3--3--3--|--3-3---3--3-||
E|-1-1--1--1-1-1--1--1--|-------------|-1-1--1--1-1-1--1--1--|-------------||
Guitar 2                                                                    |
e|------------------------------------|------------------------------------||
B|--------5-----------5---------------|--------5-----------5---------------||
G|----------------------------5-------|----------------------------5-------||
D|--3--3-----3--3--3------3---5-------|--3--3-----3--3--3------3---5-------||
A|----------------------------3-------|----------------------------3-------||
E|------------------------------------|------------------------------------||


[Pre-Chorus 2]

Guitar 1
e|----------------------|--------------------|----------------------|--------------------||
B|----------------------|--------------------|----------------------|--------------------||
G|----------------------|--------------------|----------------------|--------------------||
D|-------2------3-------|------5------7------|-------2------3-------|------5------7------||
A|-------2------3-------|------5------7------|-------2------3-------|------5------7------||
E|-------0------1-------|------3------5------|-------0------1-------|------3------5------||
Guitar 2                                                                                  |  
e|-15----12----10-------10-|----10-12--------|-15----12----10-------10-|----10-12--------||
B|----15----13----10-13----|-13--------12-13-|----15----13----10-13----|-13--------12-13-||
G|-------------------------|-----------------|-------------------------|-----------------||
D|-------------------------|-----------------|-------------------------|-----------------||
A|-------------------------|-----------------|-------------------------|-----------------||
E|-------------------------|-----------------|-------------------------|-----------------||


Guitar 1
e|----------------------|--------------------|-------------------------|-----------||
B|----------------------|--------------------|-------------------------|-----------||
G|----------------------|--------------------|-------------------------|-----------||
D|-------2------3-------|------5------7------|-------2--------3--------|-5-5-5-5-5-||
A|-------2------3-------|------5------7------|-------2--------3--------|-5-5-5-5-5-||
E|-------0------1-------|------3------5------|-------0--------1--------|-3-3-3-3-3-||
Guitar 2                                                                            |  
e|-15----12----10-------10-|----10-12--------|-15----12----10-------10-|-------7---||
B|----15----13----10-13----|-13--------12-13-|----15----13----10-13----|-----8-----||
G|-------------------------|-----------------|-------------------------|---9-------||
D|-------------------------|-----------------|-------------------------|-----------||
A|-------------------------|-----------------|-------------------------|-----------||
E|-------------------------|-----------------|-------------------------|-----------||


[Chorus 2]

Guitar 1 & 2
e|------------------|------------------|
B|------------------|------------------|
G|-5-5-5-5-5--------|------------------|
D|-5-5-5-5-5--5-5-5-|-7-7-7-7-7--2-2-2-| (x4)
A|-3-3-3-3-3--5-5-5-|-7-7-7-7-7--2-2-2-|
E|------------3-3-3-|-5-5-5-5-5--0-0-0-|


Guitar 1
e|------------------|-----------------||
B|------------------|-----------------||
G|--5---------------|-----------------||
D|--5--5---7--5--3--|--3--5--7--5--7--||
A|--3--5---7--5--3--|--3--5--7--5--7--||
E|-----3---5--3--1--|--1--3--5--3--5--||
Guitar 2                               | 
e|------------------|-----------------||
B|-----3--5/8--10---|-10--8-----------||
G|--5---------------|--------9--7--9--||
D|------------------|-----------------||
A|------------------|-----------------||
E|------------------|-----------------||


[Solo]
 
Guitar 1
e|----------------------------------|----------------------------------||
B|----------------------------------|----------------------------------||
G|----------------------------------|----------------------------------||
D|-------------2------3-------------|-------------5------7-------------||
A|-------------2------3-------------|-------------5------7-------------||
E|-------------0------1-------------|-------------3------5-------------||
Guitar 2                                                                | (x3) 
e|----------------------------------|----------------------------------||
B|--8--x-x--8--x--8--x--8--x-x-x-x--|--8--x-x--8--x--8--x--8--8-8-8-8--||
G|--x--x-x--x--x--x--x--x--x-x-x-x--|--x--x-x--x--x--x--x--x--x-x-x-x--||
D|--7--x-x--7--x--7--x--7--x-x-x-x--|--7--x-x--7--x--7--x--7--7-7-7-7--||
A|----------------------------------|----------------------------------||
E|----------------------------------|----------------------------------||


Guitar 1
e|----------------------------------|-----------------||
B|----------------------------------|-----------------||
G|----------------------------------|-----------------||
D|-------------2------3-------------|----5-5-5-5-5----||
A|-------------2------3-------------|----5-5-5-5-5----||
E|-------------0------1-------------|----3-3-3-3-3----||
Guitar 2                                               | 
e|----------------------------------|-----------------||
B|--8--x-x--8--x--8--x--8--x-x-x-x--|--8--8--8--8--8--||
G|--x--x-x--x--x--x--x--x--x-x-x-x--|--x--x--x--x--x--||
D|--7--x-x--7--x--7--x--7--x-x-x-x--|--7--7--7--7--7--||
A|----------------------------------|-----------------||
E|----------------------------------|-----------------||


[Chorus 3]

Guitar 1 & 2
e|------------------|------------------|
B|------------------|------------------|
G|-5-5-5-5-5--------|------------------|
D|-5-5-5-5-5--5-5-5-|-7-7-7-7-7--2-2-2-| (x2)
A|-3-3-3-3-3--5-5-5-|-7-7-7-7-7--2-2-2-|
E|------------3-3-3-|-5-5-5-5-5--0-0-0-|


[Outro]

Guitar 1
e|------------------|------------------|------------------|------------------||
B|------------------|------------------|------------------|------------------||
G|-5-5-5-5-5--------|------------------|-5-5-5-5-5--------|------------------||
D|-5-5-5-5-5--5-5-5-|-7-7-7-7-7--2-2-2-|-5-5-5-5-5--5-5-5-|-7-7-7-7-7--2-2-2-|| 
A|-3-3-3-3-3--5-5-5-|-7-7-7-7-7--2-2-2-|-3-3-3-3-3--5-5-5-|-7-7-7-7-7--2-2-2-||
E|------------3-3-3-|-5-5-5-5-5--0-0-0-|------------3-3-3-|-5-5-5-5-5--0-0-0-||
Guitar 2                                                                      | (x2)
e|---------8-7------|----------8-7-----|---------8-7------|----------8-7-----||
B|-------8-----8----|-------10-----8---|-------8-----8----|-------10-----8---||
G|-----9---------9--|-----9----------9-|-----9---------9--|-----9----------9-||
D|--10--------------|--10--------------|--10--------------|--10--------------||
A|------------------|------------------|------------------|------------------||
E|------------------|------------------|------------------|------------------||


Guitar 1
e|------------------|-----------------||
B|------------------|-----------------||
G|--5---------------|-----------------||
D|--5--5---7--5--3--|--3--5--7--5--7--||
A|--3--5---7--5--3--|--3--5--7--5--7--||
E|-----3---5--3--1--|--1--3--5--3--5--||
Guitar 2                               | 
e|------------------|-----------------||
B|-----3--5/8--10---|-10--8-----------||
G|--5---------------|--------9--7--9--||
D|------------------|-----------------||
A|------------------|-----------------||
E|------------------|-----------------||



------------------------------------------------------------------------------------------------
                                     8. Raining
------------------------------------------------------------------------------------------------
Tuning: Standard

Guitar 1 - Acoustic 
Guitar 2 - Electric

[Intro]

Guitar 1
e|-------------------------|
B|-------------------------|
G|-----1-------1-----1-----|
D|---2---2---2-----2---2---|
A|-2-------0---------------|
E|---------------2---------|

e|-------------|-------------|-------------|-------------------|
B|----0--0-0-0-|----0--0-0-0-|----0--0-0-0-|-0--0-0--0-0-0-0-0-|
G|----1--1-1-1-|----1--1-1-1-|----1--1-1-1-|-1--1-1--1-1-1-1-1-|
D|----2--2-2-2-|----2--2-2-2-|----2--2-2-2-|-2--2-2--2-2-2-2-2-|
A|-2--2--2-2-2-|-2--2--2-2-2-|-2--2--2-2-2-|-2--2-2--2-2-2-2-2-|
E|-0--0--0-0-0-|-0--0--0-0-0-|-0--0--0-0-0-|-0--0-0--0-0-0-0-0-|

e|-------------|-------------|-------------|-------------------|
B|----0--0-0-0-|----0--0-0-0-|----0--0-0-0-|-0--0-0--0-0-0-0-0-|
G|----1--1-1-1-|----1--1-1-1-|----1--1-1-1-|-1--1-1--1-1-1-1-1-|
D|-2--2--2-2-2-|-2--2--2-2-2-|-2--2--2-2-2-|-2--2-2--2-2-2-2-2-|
A|-0--0--0-0-0-|-0--0--0-0-0-|-0--0--0-0-0-|-0--0-0--0-0-0-0-0-|
E|-------------|-------------|-------------|-------------------|


[Verse 1]

Guitar 1
e|-------------|-------------|-------------|-------------------||
B|----0--0-0-0-|----0--0-0-0-|----0--0-0-0-|-0--0-0--0-0-0-0-0-||
G|----1--1-1-1-|----1--1-1-1-|----1--1-1-1-|-1--1-1--1-1-1-1-1-||
D|----2--2-2-2-|----2--2-2-2-|----2--2-2-2-|-2--2-2--2-2-2-2-2-||
A|-2--2--2-2-2-|-2--2--2-2-2-|-2--2--2-2-2-|-2--2-2--2-2-2-2-2-||
E|-0--0--0-0-0-|-0--0--0-0-0-|-0--0--0-0-0-|-0--0-0--0-0-0-0-0-||
                                                                | (x2)
e|-------------|-------------|-------------|-------------------||
B|----0--0-0-0-|----0--0-0-0-|----0--0-0-0-|-0--0-0--0-0-0-0-0-||
G|----1--1-1-1-|----1--1-1-1-|----1--1-1-1-|-1--1-1--1-1-1-1-1-||
D|-2--2--2-2-2-|-2--2--2-2-2-|-2--2--2-2-2-|-2--2-2--2-2-2-2-2-||
A|-0--0--0-0-0-|-0--0--0-0-0-|-0--0--0-0-0-|-0--0-0--0-0-0-0-0-||
E|-------------|-------------|-------------|-------------------||

Guitar 1
e|-------------|-------------|-------------|-------------------||
B|----0--0-0-0-|----0--0-0-0-|----0--0-0-0-|-0--0-0--0-0-0-0-0-||
G|----1--1-1-1-|----1--1-1-1-|----1--1-1-1-|-1--1-1--1-1-1-1-1-||
D|----2--2-2-2-|----2--2-2-2-|----2--2-2-2-|-2--2-2--2-2-2-2-2-||
A|-2--2--2-2-2-|-2--2--2-2-2-|-2--2--2-2-2-|-2--2-2--2-2-2-2-2-||
E|-0--0--0-0-0-|-0--0--0-0-0-|-0--0--0-0-0-|-0--0-0--0-0-0-0-0-|| 
                                                                |
Guitar 2                                                        |
e|-------------|-------------|-------------|-------------------||
B|-------------|-------------|-------------|-------------------||
G|-------------|-------------|-------------|-------------------||
D|-------------|-------------|-------------|-------------------||
A|-------------|-------------|-------------|-------------------||
E|-----0-------|-------------|-------------|-------------------||

Guitar 1
e|-------------|-------------|-------------|-------------------||
B|----0--0-0-0-|----0--0-0-0-|----0--0-0-0-|-0--0-0--0-0-0-0-0-||
G|----1--1-1-1-|----1--1-1-1-|----1--1-1-1-|-1--1-1--1-1-1-1-1-||
D|-2--2--2-2-2-|-2--2--2-2-2-|-2--2--2-2-2-|-2--2-2--2-2-2-2-2-||
A|-0--0--0-0-0-|-0--0--0-0-0-|-0--0--0-0-0-|-0--0-0--0-0-0-0-0-||
E|-------------|-------------|-------------|-------------------||
                                                                |      
Guitar 2                                                        |
e|-------------|-------------|-------------|-------------------||
B|-------------|-------------|-------------|-------------------||
G|-------------|-------------|-------------|-------------------||
D|-------------|-------------|-------------|-------------------||
A|-----0-------|-------------|-------------|-------------------||
E|-------------|-------------|-------------|-------------------||     


[Pre-Chorus 1] 

Guitar 1
e|-------------|-------------|-------------|-------------||
B|----0--0-0-0-|----0--0-0-0-|-------------|-------------||
G|----1--1-1-1-|----1--1-1-1-|-------------|-2--2--2-2-2-||
D|----2--2-2-2-|-2--2--2-2-2-|----4--4-4-4-|-2--2--2-2-2-||
A|-2--2--2-2-2-|-0--0--0-0-0-|-4--4--4-4-4-|-0--0--0-0-0-||
E|-0--0--0-0-0-|-------------|-2--2--2-2-2-|-------------||
                                                          |
Guitar 2                                                  |
e|-------------|-------------|-------------|-------------||
B|-------9-----|-------9-----|-------9-----|-------9-----||
G|-----9---9---|-----9---9---|-----9---9---|-----9---9---||
D|---9---------|---7---------|-------------|---7---------||
A|-------------|-------------|---9---------|-------------||
E|-------------|-------------|-------------|-------------||

Guitar 1
e|-------------|-------------|-------------|-------------||
B|----0--0-0-0-|-------------|-------------|-------------||
G|----1--1-1-1-|-2--2--2-2-2-|-------------|-2--2--2-2-2-||
D|----2--2-2-2-|-2--2--2-2-2-|----4--4-4-4-|-2--2--2-2-2-||
A|-2--2--2-2-2-|-0--0--0-0-0-|-4--4--4-4-4-|-0--0--0-0-0-||
E|-0--0--0-0-0-|-------------|-2--2--2-2-2-|-------------||
                                                          | 
Guitar 2                                                  |
e|-------------|-------------|-------------|-------------||
B|-------9-----|-------9-----|-------9-----|-------9-----||
G|-----9---9---|-----9---9---|-----9---9---|-----9---9---||
D|---9---------|---7---------|-------------|---7---------||
A|-------------|-------------|---9---------|-------------||
E|-------------|-------------|-------------|-------------||


[Verse 2]

Guitar 1 & 2
e|-------------|-------------|-------------|-------------------|
B|----0--0-0-0-|----0--0-0-0-|----0--0-0-0-|-0--0-0--0-0-0-0-0-|
G|----1--1-1-1-|----1--1-1-1-|----1--1-1-1-|-1--1-1--1-1-1-1-1-|
D|----2--2-2-2-|----2--2-2-2-|----2--2-2-2-|-2--2-2--2-2-2-2-2-|
A|-2--2--2-2-2-|-2--2--2-2-2-|-2--2--2-2-2-|-2--2-2--2-2-2-2-2-|
E|-0--0--0-0-0-|-0--0--0-0-0-|-0--0--0-0-0-|-0--0-0--0-0-0-0-0-|

e|-------------|-------------|-------------|-------------------|
B|----0--0-0-0-|----0--0-0-0-|----0--0-0-0-|-0--0-0--0-0-0-0-0-|
G|----1--1-1-1-|----1--1-1-1-|----1--1-1-1-|-1--1-1--1-1-1-1-1-|
D|-2--2--2-2-2-|-2--2--2-2-2-|-2--2--2-2-2-|-2--2-2--2-2-2-2-2-|
A|-0--0--0-0-0-|-0--0--0-0-0-|-0--0--0-0-0-|-0--0-0--0-0-0-0-0-|
E|-------------|-------------|-------------|-------------------|


"Tracy..."
Guitar 1
e|-------------|-------------|-------------|-------------------||
B|----0--0-0-0-|----0--0-0-0-|----0--0-0-0-|-0--0-0--0-0-0-0-0-||
G|----1--1-1-1-|----1--1-1-1-|----1--1-1-1-|-1--1-1--1-1-1-1-1-||
D|----2--2-2-2-|----2--2-2-2-|----2--2-2-2-|-2--2-2--2-2-2-2-2-||
A|-2--2--2-2-2-|-2--2--2-2-2-|-2--2--2-2-2-|-2--2-2--2-2-2-2-2-||
E|-0--0--0-0-0-|-0--0--0-0-0-|-0--0--0-0-0-|-0--0-0--0-0-0-0-0-||
                                                                |
Guitar 2                                                        |
e|-------------|---------|-------------|-------------------||
B|-------------|---------|-------------|-------------------||
G|-------------|-------------|-------------|-------------------||
D|-------------|-------------|-------------|-------------------||
A|-------------|-------------|-------------|-------------------||
E|-------------|-------------|-------------|-------------------||


e|-------------|-------------|-------------|-------------------||
B|----0--0-0-0-|----0--0-0-0-|----0--0-0-0-|-0--0-0--0-0-0-0-0-||
G|----1--1-1-1-|----1--1-1-1-|----1--1-1-1-|-1--1-1--1-1-1-1-1-||
D|-2--2--2-2-2-|-2--2--2-2-2-|-2--2--2-2-2-|-2--2-2--2-2-2-2-2-||
A|-0--0--0-0-0-|-0--0--0-0-0-|-0--0--0-0-0-|-0--0-0--0-0-0-0-0-||
E|-------------|-------------|-------------|-------------------||
                                                                |
Guitar 2                                                        |  
e|-------------|-------------|-------------|-------------------||
B|-------------|--9-----9----|-------------|-------------------||
G|-------------|-----7-----6-|-------------|-------------------||
D|-------------|-------------|-------------|-------------------||
A|-------------|-------------|-------------|-------------------||
E|-------------|-------------|-------------|-------------------||

Guitar 1
e|-------------|-------------|-------------|-------------------||
B|----0--0-0-0-|----0--0-0-0-|----0--0-0-0-|-0--0-0--0-0-0-0-0-||
G|----1--1-1-1-|----1--1-1-1-|----1--1-1-1-|-1--1-1--1-1-1-1-1-||
D|----2--2-2-2-|----2--2-2-2-|----2--2-2-2-|-2--2-2--2-2-2-2-2-||
A|-2--2--2-2-2-|-2--2--2-2-2-|-2--2--2-2-2-|-2--2-2--2-2-2-2-2-||
E|-0--0--0-0-0-|-0--0--0-0-0-|-0--0--0-0-0-|-0--0-0--0-0-0-0-0-||
                                                                |
Guitar 2                                                        |
e|-------------|---------|-------------|-------------------||
B|-------------|---------|-------------|-------------------||
G|-------------|-------------|-------------|-------------------||
D|-------------|-------------|-------------|-------------------||
A|-------------|-------------|-------------|-------------------||
E|-------------|-------------|-------------|-------------------||

Guitar 1
e|-------------|-------------|-------------|-------------------||
B|----0--0-0-0-|----0--0-0-0-|----0--0-0-0-|-0--0-0--0-0-0-0-0-||
G|----1--1-1-1-|----1--1-1-1-|----1--1-1-1-|-1--1-1--1-1-1-1-1-||
D|-2--2--2-2-2-|-2--2--2-2-2-|-2--2--2-2-2-|-2--2-2--2-2-2-2-2-||
A|-0--0--0-0-0-|-0--0--0-0-0-|-0--0--0-0-0-|-0--0-0--0-0-0-0-0-||
E|-------------|-------------|-------------|-------------------||
                                                                |
Guitar 2                                                        |  
e|-------------|-------------|-------------|-------------------||
B|-------------|--9-----9----|-------------|-------------------||
G|-------------|-----7-----6-|-------------|-------------------||
D|-------------|-------------|-------------|-------------------||
A|-------------|-------------|-------------|-------------------||
E|-------------|-------------|-------------|-------------------||

Guitar 1
e|-------------|-------------|-------------|-------------------||
B|----0--0-0-0-|----0--0-0-0-|----0--0-0-0-|-0--0-0--0-0-0-0-0-||
G|----1--1-1-1-|----1--1-1-1-|----1--1-1-1-|-1--1-1--1-1-1-1-1-||
D|----2--2-2-2-|----2--2-2-2-|----2--2-2-2-|-2--2-2--2-2-2-2-2-||
A|-2--2--2-2-2-|-2--2--2-2-2-|-2--2--2-2-2-|-2--2-2--2-2-2-2-2-||
E|-0--0--0-0-0-|-0--0--0-0-0-|-0--0--0-0-0-|-0--0-0--0-0-0-0-0-||
                                                                |
Guitar 2                                                        |
e|-------------|--7--------7-|-------------|-------------------||
B|-------------|-----7--9----|-------------|-------------------||
G|-------------|-------------|-------------|-------------------||
D|-------------|-------------|-------------|-------------------||
A|-------------|-------------|-------------|-------------------||
E|-------------|-------------|-------------|-------------------||

Guitar 1
e|-------------|-------------|-------------|-------------------||
B|----0--0-0-0-|----0--0-0-0-|----0--0-0-0-|-0--0-0--0-0-0-0-0-||
G|----1--1-1-1-|----1--1-1-1-|----1--1-1-1-|-1--1-1--1-1-1-1-1-||
D|-2--2--2-2-2-|-2--2--2-2-2-|-2--2--2-2-2-|-2--2-2--2-2-2-2-2-||
A|-0--0--0-0-0-|-0--0--0-0-0-|-0--0--0-0-0-|-0--0-0--0-0-0-0-0-||
E|-------------|-------------|-------------|-------------------||
                                                                |
Guitar 2                                                        |  
e|-------------|-------------|-------------|-------------------||
B|-------------|--9-----9----|-------------|-------------------||
G|-------------|-----7-----6-|-------------|-------------------||
D|-------------|-------------|-------------|-------------------||
A|-------------|-------------|-------------|-------------------||
E|-------------|-------------|-------------|-------------------||


[Pre-Chorus 2]

Guitar 1
e|-------------|-------------|-------------|-------------||
B|----0--0-0-0-|----0--0-0-0-|-------------|-------------||
G|----1--1-1-1-|----1--1-1-1-|-------------|-2--2--2-2-2-||
D|----2--2-2-2-|-2--2--2-2-2-|----4--4-4-4-|-2--2--2-2-2-||
A|-2--2--2-2-2-|-0--0--0-0-0-|-4--4--4-4-4-|-0--0--0-0-0-||
E|-0--0--0-0-0-|-------------|-2--2--2-2-2-|-------------||
                                                          |
Guitar 2                                                  |
e|-------------|-------------|-------------|-------------||
B|-------9-----|-------9-----|-------9-----|-------9-----||
G|-----9---9---|-----9---9---|-----9---9---|-----9---9---||
D|---9---------|---7---------|-------------|---7---------||
A|-------------|-------------|---9---------|-------------||
E|-------------|-------------|-------------|-------------||

Guitar 1
e|-------------|-------------|-------------|-------------||
B|----0--0-0-0-|-------------|-------------|-------------||
G|----1--1-1-1-|-2--2--2-2-2-|-------------|-2--2--2-2-2-||
D|----2--2-2-2-|-2--2--2-2-2-|----4--4-4-4-|-2--2--2-2-2-||
A|-2--2--2-2-2-|-0--0--0-0-0-|-4--4--4-4-4-|-0--0--0-0-0-||
E|-0--0--0-0-0-|-------------|-2--2--2-2-2-|-------------||
                                                          | 
Guitar 2                                                  |
e|-------------|-------------|-------------|-------------||
B|-------9-----|-------9-----|-------9-----|-------9-----||
G|-----9---9---|-----9---9---|-----9---9---|-----9---9---||
D|---9---------|---7---------|-------------|---7---------||
A|-------------|-------------|---9---------|-------------||
E|-------------|-------------|-------------|-------------||

Guitar 1 & 2
e|-------------|-------------|
B|-------------|-------------|
G|-------------|-------------|
D|--4----4--4--|--7----7--7--|
A|--4----4--4--|--7----7--7--|
E|--2----2--2--|--5----5--5--|


[Bridge]

Guitar 1
e|------------------|--------------------|
B|------------------|--------------------|
G|------------------|--------------------|
D|-6--6--6--6--7--7-|-9--9--9--9--11--11-| (x4)
A|-6--6--6--6--7--7-|-9--9--9--9--11--11-|
E|-4--4--4--4--5--5-|-7--7--7--7---9---9-|

Guitar 2
e|-----------------|-----------|----------------------|---------------------|
B|-----------9-----|------7----|-------9h10p9---------|--------7h9p7--------|
G|--------------9--|----8---9--|----9--9-------11--9--|-----8---------8--7--|
D|--6-6-6-6--------|--9--------|--9----9--------------|--9------------------|
A|-----------------|-----------|----------------------|---------------------|
E|-----------------|-----------|----------------------|---------------------|

e|-----------------|-----------|----------------------|---------------------|
B|-----------9-----|------7----|-------12h14p12--10-9-|--------7h9p7--------|
G|--------------9--|----8---9--|----9-----------------|-----8---------8--7--|
D|--6-6-6-6--------|--9--------|--9-------------------|--9------------------|
A|-----------------|-----------|----------------------|---------------------|
E|-----------------|-----------|----------------------|---------------------|


[Pre-Chorus 2]

Guitar 1 & 2
e|-------------|-------------|-------------|------------------------|
B|-------------|-------------|-------------|------------------------|
G|-------------|-------------|-------------|------------------------|
D|--4----4--4--|--4----4--4--|--7----7--7--|-7--7--7--7--7--7--7--7-|
A|--4----4--4--|--4----4--4--|--7----7--7--|-7--7--7--7--7--7--7--7-|
E|--2----2--2--|--2----2--2--|--5----5--5--|-5--5--5--5--5--5--5--5-|

e|------------------|-----------------|-----------------|
B|--0-0-0-0-0-0-0-0-|-0-0-0-0-0-0-0-0-|-0-0-0-0-0-0-0-0-|
G|--1-1-1-1-1-1-1-1-|-1-1-1-1-1-1-1-1-|-1-1-1-1-1-1-1-1-|
D|--2-2-2-2-2-2-2-2-|-2-2-2-2-2-2-2-2-|-2-2-2-2-2-2-2-2-|
A|--2-2-2-2-2-2-2-2-|-0-0-0-0-0-0-0-0-|-0-0-0-0-0-0-0-0-|
E|--0-0-0-0-0-0-0-0-|-----------------|-----------------|

e|------------------|------------------|-----------------|-----------------|
B|--0-0-0-0-0-0-0-0-|--0-0-0-0-0-0-0-0-|-0-0-0-0-0-0-0-0-|-0-0-0-0-0-0-0-0-|
G|--1-1-1-1-1-1-1-1-|--1-1-1-1-1-1-1-1-|-1-1-1-1-1-1-1-1-|-1-1-1-1-1-1-1-1-|
D|--2-2-2-2-2-2-2-2-|--2-2-2-2-2-2-2-2-|-2-2-2-2-2-2-2-2-|-2-2-2-2-2-2-2-2-|
A|--2-2-2-2-2-2-2-2-|--2-2-2-2-2-2-2-2-|-0-0-0-0-0-0-0-0-|-0-0-0-0-0-0-0-0-|
E|--0-0-0-0-0-0-0-0-|--0-0-0-0-0-0-0-0-|-----------------|-----------------|


[Chorus]

Guitar 1
e|-------------|-------------|-------------|-------------|
B|----0--0-0-0-|----0--0-0-0-|-------------|-------------|
G|----1--1-1-1-|----1--1-1-1-|-------------|-2--2--2-2-2-|
D|----2--2-2-2-|-2--2--2-2-2-|----4--4-4-4-|-2--2--2-2-2-|
A|-2--2--2-2-2-|-0--0--0-0-0-|-4--4--4-4-4-|-0--0--0-0-0-|
E|-0--0--0-0-0-|-------------|-2--2--2-2-2-|-------------|

e|-------------|-------------|-------------|-------------|
B|----0--0-0-0-|-------------|-------------|-------------|
G|----1--1-1-1-|-2--2--2-2-2-|-------------|-2--2--2-2-2-|
D|----2--2-2-2-|-2--2--2-2-2-|----4--4-4-4-|-2--2--2-2-2-|
A|-2--2--2-2-2-|-0--0--0-0-0-|-4--4--4-4-4-|-0--0--0-0-0-|
E|-0--0--0-0-0-|-------------|-2--2--2-2-2-|-------------|

e|-------------|-------------|-------------|-------------|
B|----0--0-0-0-|----0--0-0-0-|-------------|-------------|
G|----1--1-1-1-|----1--1-1-1-|-------------|-2--2--2-2-2-|
D|----2--2-2-2-|-2--2--2-2-2-|----4--4-4-4-|-2--2--2-2-2-|
A|-2--2--2-2-2-|-0--0--0-0-0-|-4--4--4-4-4-|-0--0--0-0-0-|
E|-0--0--0-0-0-|-------------|-2--2--2-2-2-|-------------|

e|-------------|-------------|-------------|-------------|
B|----0--0-0-0-|-------------|-------------|-------------|
G|----1--1-1-1-|-2--2--2-2-2-|-------------|-2--2--2-2-2-|
D|----2--2-2-2-|-2--2--2-2-2-|----4--4-4-4-|-2--2--2-2-2-|
A|-2--2--2-2-2-|-0--0--0-0-0-|-4--4--4-4-4-|-0--0--0-0-0-|
E|-0--0--0-0-0-|-------------|-2--2--2-2-2-|-------------|

Guitar 2
e|----------------------|---------------------|
B|-------9h10p9---------|--------7h9p7--------|
G|----9--9-------11--9--|-----8---------8--7--|
D|--9----9--------------|--9------------------| (x4)
A|----------------------|---------------------|
E|----------------------|---------------------|


[Outro]

Guitar 1
e|------------------------0--|
B|------------------------0--|
G|-----1-------1-----1----1--|
D|---2---2---2-----2---2--2--|
A|-2-------0--------------2--|
E|---------------2--------0--|




------------------------------------------------------------------------------------------------
                                 9. Far Drive
------------------------------------------------------------------------------------------------
Tuning: Standard

Guitar 1 - Acoustic
Guitar 2 - Electric (Capo on 1st Fret)

[Intro]

Guitar 1
e|-----------------|-----------------|-----------------|-----------------|
B|-----------------|-----------------|-----------------|-----------------|
G|-----------------|-----------------|-7-7-7-7-7-7-7-7-|-7-7-7-7-7-7-7-7-|
D|-8-8-8-8-8-8-8-8-|-8-8-8-8-8-8-8-8-|-7-7-7-7-7-7-7-7-|-7-7-7-7-7-7-7-7-|
A|-8-8-8-8-8-8-8-8-|-8-8-8-8-8-8-8-8-|-5-5-5-5-5-5-5-5-|-5-5-5-5-5-5-5-5-|
E|-6-6-6-6-6-6-6-6-|-6-6-6-6-6-6-6-6-|-----------------|-----------------|

e|-----------------|-----------------|-----------------|-----------------|
B|-----------------|-----------------|-----------------|-----------------|
G|-8-8-8-8-8-8-8-8-|-8-8-8-8-8-8-8-8-|-----------------|-----------------|
D|-8-8-8-8-8-8-8-8-|-8-8-8-8-8-8-8-8-|-8-8-8-8-8-8-8-8-|-7-7-7-7-7-7-7-7-|
A|-6-6-6-6-6-6-6-6-|-6-6-6-6-6-6-6-6-|-8-8-8-8-8-8-8-8-|-7-7-7-7-7-7-7-7-|
E|-----------------|-----------------|-6-6-6-6-6-6-6-6-|-5-5-5-5-5-5-5-5-|

Guitar 2
e|--------------5-6---|--------0--0--0-0-0-0-0--0--0--0--0--0--4--4--4--4--|
B|------------2-----5-|----2-2/7--5--5-5-5-5-5--3--2--2--2--2--1--1--1--1--|
G|--2--2--2-4---------|--4-------------------------------------1--1--1--1--|
D|--------------------|----------------------------------------------------|
A|--------------------|----------------------------------------------------|
E|--------------------|----------------------------------------------------|


[Verse 1]

Guitar 1
e|-----------------|-----------------|-----------------|-----------------|
B|-----------------|-----------------|-----------------|-----------------|
G|-----------------|-----------------|-7-7-7-7-7-7-7-7-|-7-7-7-7-7-7-7-7-|
D|-8-8-8-8-8-8-8-8-|-8-8-8-8-8-8-8-8-|-7-7-7-7-7-7-7-7-|-7-7-7-7-7-7-7-7-|
A|-8-8-8-8-8-8-8-8-|-8-8-8-8-8-8-8-8-|-5-5-5-5-5-5-5-5-|-5-5-5-5-5-5-5-5-|
E|-6-6-6-6-6-6-6-6-|-6-6-6-6-6-6-6-6-|-----------------|-----------------|

e|-----------------|-----------------|-----------------|-----------------|
B|-----------------|-----------------|-----------------|-----------------|
G|-8-8-8-8-8-8-8-8-|-8-8-8-8-8-8-8-8-|-----------------|-----------------|
D|-8-8-8-8-8-8-8-8-|-8-8-8-8-8-8-8-8-|-8-8-8-8-8-8-8-8-|-7-7-7-7-7-7-7-7-|
A|-6-6-6-6-6-6-6-6-|-6-6-6-6-6-6-6-6-|-8-8-8-8-8-8-8-8-|-7-7-7-7-7-7-7-7-|
E|-----------------|-----------------|-6-6-6-6-6-6-6-6-|-5-5-5-5-5-5-5-5-|

e|-----------------|-----------------|-----------------|-----------------|
B|-----------------|-----------------|-----------------|-----------------|
G|-----------------|-----------------|-7-7-7-7-7-7-7-7-|-7-7-7-7-7-7-7-7-|
D|-8-8-8-8-8-8-8-8-|-8-8-8-8-8-8-8-8-|-7-7-7-7-7-7-7-7-|-7-7-7-7-7-7-7-7-|
A|-8-8-8-8-8-8-8-8-|-8-8-8-8-8-8-8-8-|-5-5-5-5-5-5-5-5-|-5-5-5-5-5-5-5-5-|
E|-6-6-6-6-6-6-6-6-|-6-6-6-6-6-6-6-6-|-----------------|-----------------|

e|-----------------|-----------------|-----------------|-----------------|
B|-----------------|-----------------|-----------------|-----------------|
G|-8-8-8-8-8-8-8-8-|-8-8-8-8-8-8-8-8-|-----------------|-----------------|
D|-8-8-8-8-8-8-8-8-|-8-8-8-8-8-8-8-8-|-8-8-8-8-8-8-8-8-|-7-7-7-7-7-7-7-7-|
A|-6-6-6-6-6-6-6-6-|-6-6-6-6-6-6-6-6-|-8-8-8-8-8-8-8-8-|-7-7-7-7-7-7-7-7-|
E|-----------------|-----------------|-6-6-6-6-6-6-6-6-|-5-5-5-5-5-5-5-5-|


[Chorus 1]

Guitar 1
"Act alive..."
e|-----------------|-----------------|-----------------|-----------------|
B|-----------------|-----------------|-----------------|-----------------|
G|-----------------|-----------------|-7-7-7-7-7-7-7-7-|-7-7-7-7-7-7-7-7-|
D|-8-8-8-8-8-8-8-8-|-8-8-8-8-8-8-8-8-|-7-7-7-7-7-7-7-7-|-7-7-7-7-7-7-7-7-|
A|-8-8-8-8-8-8-8-8-|-8-8-8-8-8-8-8-8-|-5-5-5-5-5-5-5-5-|-5-5-5-5-5-5-5-5-|
E|-6-6-6-6-6-6-6-6-|-6-6-6-6-6-6-6-6-|-----------------|-----------------|

e|-----------------|-----------------|-----------------|-----------------|
B|-----------------|-----------------|-----------------|-----------------|
G|-8-8-8-8-8-8-8-8-|-8-8-8-8-8-8-8-8-|-----------------|-----------------|
D|-8-8-8-8-8-8-8-8-|-8-8-8-8-8-8-8-8-|-8-8-8-8-8-8-8-8-|-7-7-7-7-7-7-7-7-|
A|-6-6-6-6-6-6-6-6-|-6-6-6-6-6-6-6-6-|-8-8-8-8-8-8-8-8-|-7-7-7-7-7-7-7-7-|
E|-----------------|-----------------|-6-6-6-6-6-6-6-6-|-5-5-5-5-5-5-5-5-|

Guitar 2
e|--------------5-6---|--------0--0--0-0-0-0-0--0--0--0--0--0--4--4--4--4--|
B|------------2-----5-|----2-2/7--5--5-5-5-5-5--3--2--2--2--2--1--1--1--1--|
G|--2--2--2-4---------|--4-------------------------------------1--1--1--1--|
D|--------------------|----------------------------------------------------|
A|--------------------|----------------------------------------------------|
E|--------------------|----------------------------------------------------|


[Verse 2]

Guitar 1
e|-----------------|-----------------|-----------------|-----------------|
B|-----------------|-----------------|-----------------|-----------------|
G|-----------------|-----------------|-7-7-7-7-7-7-7-7-|-7-7-7-7-7-7-7-7-|
D|-8-8-8-8-8-8-8-8-|-8-8-8-8-8-8-8-8-|-7-7-7-7-7-7-7-7-|-7-7-7-7-7-7-7-7-|
A|-8-8-8-8-8-8-8-8-|-8-8-8-8-8-8-8-8-|-5-5-5-5-5-5-5-5-|-5-5-5-5-5-5-5-5-|
E|-6-6-6-6-6-6-6-6-|-6-6-6-6-6-6-6-6-|-----------------|-----------------|

e|-----------------|-----------------|-----------------|-----------------|
B|-----------------|-----------------|-----------------|-----------------|
G|-8-8-8-8-8-8-8-8-|-8-8-8-8-8-8-8-8-|-----------------|-----------------|
D|-8-8-8-8-8-8-8-8-|-8-8-8-8-8-8-8-8-|-8-8-8-8-8-8-8-8-|-7-7-7-7-7-7-7-7-|
A|-6-6-6-6-6-6-6-6-|-6-6-6-6-6-6-6-6-|-8-8-8-8-8-8-8-8-|-7-7-7-7-7-7-7-7-|
E|-----------------|-----------------|-6-6-6-6-6-6-6-6-|-5-5-5-5-5-5-5-5-|

e|-----------------|-----------------|-----------------|-----------------|
B|-----------------|-----------------|-----------------|-----------------|
G|-----------------|-----------------|-7-7-7-7-7-7-7-7-|-7-7-7-7-7-7-7-7-|
D|-8-8-8-8-8-8-8-8-|-8-8-8-8-8-8-8-8-|-7-7-7-7-7-7-7-7-|-7-7-7-7-7-7-7-7-|
A|-8-8-8-8-8-8-8-8-|-8-8-8-8-8-8-8-8-|-5-5-5-5-5-5-5-5-|-5-5-5-5-5-5-5-5-|
E|-6-6-6-6-6-6-6-6-|-6-6-6-6-6-6-6-6-|-----------------|-----------------|

e|-----------------|-----------------|-----------------|-----------------|
B|-----------------|-----------------|-----------------|-----------------|
G|-8-8-8-8-8-8-8-8-|-8-8-8-8-8-8-8-8-|-----------------|-----------------|
D|-8-8-8-8-8-8-8-8-|-8-8-8-8-8-8-8-8-|-8-8-8-8-8-8-8-8-|-7-7-7-7-7-7-7-7-|
A|-6-6-6-6-6-6-6-6-|-6-6-6-6-6-6-6-6-|-8-8-8-8-8-8-8-8-|-7-7-7-7-7-7-7-7-|
E|-----------------|-----------------|-6-6-6-6-6-6-6-6-|-5-5-5-5-5-5-5-5-|


[Chorus 2]

Guitar 1
"Act alive..."
e|------------------------|------------------------|------------------------|------------------------|
B|------------------------|------------------------|------------------------|------------------------|
G|------------------------|------------------------|-8--8--8--8--8--8--8--8-|------------------------|
D|-3--3--3--3--3--3--3--3-|-3--3--3--3--3--3--3--3-|-8--8--8--8--8--8--8--8-|-8--8--8--8--8--8--8--8-|
A|-3--3--3--3--3--3--3--3-|-3--3--3--3--3--3--3--3-|-6--6--6--6--6--6--6--6-|-8--8--8--8--8--8--8--8-|
E|-1--1--1--1--1--1--1--1-|-1--1--1--1--1--1--1--1-|------------------------|-6--6--6--6--6--6--6--6-|

Guitar 2
e|--------------------------------|-2-2-2-2-2-2-2-2-|---------------------|
B|--------------------------------|-3-3-3-3-3-3-3-3-|---------------------|
G|-1--1--1-1-1-1--4-4-4-4-4-4-4-4-|-2-2-2-2-2-2-2-2-|-2-2-2-2-2-2-2-2---2-|
D|--------------------------------|-0-0-0-0-0-0-0-0-|-2-2-2-2-2-2-2-2---2-|
A|--------------------------------|-----------------|-0-0-0-0-0-0-0-0---0-|
E|--------------------------------|-----------------|---------------------|


[Chorus 3]

Guitar 1
"Act alive..."
e|------------------------|------------------------|------------------------|------------------------|
B|------------------------|------------------------|------------------------|------------------------|
G|------------------------|------------------------|-8--8--8--8--8--8--8--8-|------------------------|
D|-3--3--3--3--3--3--3--3-|-3--3--3--3--3--3--3--3-|-8--8--8--8--8--8--8--8-|-8--8--8--8--8--8--8--8-|
A|-3--3--3--3--3--3--3--3-|-3--3--3--3--3--3--3--3-|-6--6--6--6--6--6--6--6-|-8--8--8--8--8--8--8--8-|
E|-1--1--1--1--1--1--1--1-|-1--1--1--1--1--1--1--1-|------------------------|-6--6--6--6--6--6--6--6-|

e|------------------------|--------|-----------------|-----------------|-----------------|
B|------------------------|--------|-----------------|-----------------|-----------------|
G|-8--8--8--8--8--8--8--8-|--------|-----------------|-7-7-7-7-7-7-7-7-|-7-7-7-7-7-7-7-7-|
D|-8--8--8--8--8--8--8--8-|-8---8--|-8-8-8-8-8-8-8-8-|-7-7-7-7-7-7-7-7-|-7-7-7-7-7-7-7-7-|
A|-6--6--6--6--6--6--6--6-|-8---8--|-8-8-8-8-8-8-8-8-|-5-5-5-5-5-5-5-5-|-5-5-5-5-5-5-5-5-|
E|------------------------|-6---6--|-6-6-6-6-6-6-6-6-|-----------------|-----------------|

e|-----------------|-----------------|-----------------|-----------------|
B|-----------------|-----------------|-----------------|-----------------|
G|-8-8-8-8-8-8-8-8-|-8-8-8-8-8-8-8-8-|-----------------|-----------------|
D|-8-8-8-8-8-8-8-8-|-8-8-8-8-8-8-8-8-|-8-8-8-8-8-8-8-8-|-7-7-7-7-7-7-7-7-|
A|-6-6-6-6-6-6-6-6-|-6-6-6-6-6-6-6-6-|-8-8-8-8-8-8-8-8-|-7-7-7-7-7-7-7-7-|
E|-----------------|-----------------|-6-6-6-6-6-6-6-6-|-5-5-5-5-5-5-5-5-|

Guitar 2
e|--------------------------------|-2-2-2-2-2-2-2-2-|------------------|
B|--------------------------------|-3-3-3-3-3-3-3-3-|------------------|
G|-1--1--1-1-1-1--4-4-4-4-4-4-4-4-|-2-2-2-2-2-2-2-2-|-2-2-2-2-2-2-2-2--|
D|--------------------------------|-0-0-0-0-0-0-0-0-|-2-2-2-2-2-2-2-2--|
A|--------------------------------|-----------------|-0-0-0-0-0-0-0-0--|
E|--------------------------------|-----------------|------------------|

e|-2-2-2-2-2-2-2-2-|
B|-3-3-3-3-3-3-3-3-|
G|-2-2-2-2-2-2-2-2-|
D|-0-0-0-0-0-0-0-0-|
A|-----------------|
E|-----------------|


[Outro]

Guitar 1
e|-----------------|-----------------|-----------------|-----------------|
B|-----------------|-----------------|-----------------|-----------------|
G|-----------------|-----------------|-7-7-7-7-7-7-7-7-|-7-7-7-7-7-7-7-7-|
D|-8-8-8-8-8-8-8-8-|-8-8-8-8-8-8-8-8-|-7-7-7-7-7-7-7-7-|-7-7-7-7-7-7-7-7-|
A|-8-8-8-8-8-8-8-8-|-8-8-8-8-8-8-8-8-|-5-5-5-5-5-5-5-5-|-5-5-5-5-5-5-5-5-|
E|-6-6-6-6-6-6-6-6-|-6-6-6-6-6-6-6-6-|-----------------|-----------------|

e|-----------------|-----------------|-----------------|-----------------|
B|-----------------|-----------------|-----------------|-----------------|
G|-8-8-8-8-8-8-8-8-|-8-8-8-8-8-8-8-8-|-----------------|-----------------|
D|-8-8-8-8-8-8-8-8-|-8-8-8-8-8-8-8-8-|-8-8-8-8-8-8-8-8-|-7-7-7-7-7-7-7-7-|
A|-6-6-6-6-6-6-6-6-|-6-6-6-6-6-6-6-6-|-8-8-8-8-8-8-8-8-|-7-7-7-7-7-7-7-7-|
E|-----------------|-----------------|-6-6-6-6-6-6-6-6-|-5-5-5-5-5-5-5-5-|

e|-----|
B|-----|
G|-----|
D|--6--|
A|--6--|
E|--4--|

Guitar 2
e|--------------5-6---|--------0--0--0-0-0-0-0--0--0--0--0--0--4--4--4--4--|
B|------------2-----5-|----2-2/7--5--5-5-5-5-5--3--2--2--2--2--1--1--1--1--|
G|--2--2--2-4---------|--4-------------------------------------1--1--1--1--|
D|--------------------|----------------------------------------------------|
A|--------------------|----------------------------------------------------|
E|--------------------|----------------------------------------------------|

e|--------------5-6---|--------0--0--0-0-0-0-0--0--0--0--0--0--4--4--4--4--|
B|------------2-----5-|----2-2/7--5--5-5-5-5-5--3--2--2--2--2--1--1--1--1--|
G|--2--2--2-4---------|--4-------------------------------------1--1--1--1--|
D|--------------------|----------------------------------------------------|
A|--------------------|----------------------------------------------------|
E|--------------------|----------------------------------------------------|

e|-----|
B|-----|
G|--0--|
D|-----|
A|-----|
E|-----|


------------------------------------------------------------------------------------------------
                                10. Everyone But You
------------------------------------------------------------------------------------------------
Tuning: Standard

[Intro]

e|-----------------|-----------------|-----------------|-----------------|
B|-----------------|-----------------|-----------------|-----------------|
G|-8-8-8-8-8-8-8-8-|-8-8-8-8-8-8-8-8-|-----------------|-----------------|
D|-8-8-8-8-8-8-8-8-|-8-8-8-8-8-8-8-8-|-6-6-6-6-6-6-6-6-|-6-6-6-6-6-6-6-6-| (x2)
A|-6-6-6-6-6-6-6-6-|-6-6-6-6-6-6-6-6-|-6-6-6-6-6-6-6-6-|-6-6-6-6-6-6-6-6-|
E|-----------------|-----------------|-4-4-4-4-4-4-4-4-|-4-4-4-4-4-4-4-4-|


[Verse 1]

e|-----------------|-----------------|-----------------|-----------------|
B|-----------------|-----------------|-----------------|-----------------|
G|-8-8-8-8-8-8-8-8-|-8-8-8-8-8-8-8-8-|-8-8-8-8-8-8-8-8-|-8-8-8-8-8-8-8-8-|
D|-8-8-8-8-8-8-8-8-|-8-8-8-8-8-8-8-8-|-8-8-8-8-8-8-8-8-|-8-8-8-8-8-8-8-8-|
A|-6-6-6-6-6-6-6-6-|-6-6-6-6-6-6-6-6-|-6-6-6-6-6-6-6-6-|-6-6-6-6-6-6-6-6-|
E|-----------------|-----------------|-----------------|-----------------|
         PM                 PM                PM               PM 
e|-----------------|-----------------|-----------------|-----------------|
B|-----------------|-----------------|-----------------|-----------------|
G|-----------------|-----------------|-----------------|-----------------|
D|-6-6-6-6-6-6-6-6-|-6-6-6-6-6-6-6-6-|-6-6-6-6-6-6-6-6-|-6-6-6-6-6-6-6-6-|
A|-6-6-6-6-6-6-6-6-|-6-6-6-6-6-6-6-6-|-6-6-6-6-6-6-6-6-|-6-6-6-6-6-6-6-6-|
E|-4-4-4-4-4-4-4-4-|-4-4-4-4-4-4-4-4-|-4-4-4-4-4-4-4-4-|-4-4-4-4-4-4-4-4-|
         PM                 PM                PM               PM 

e|-----------------|-----------------|-----------------|-----------------|
B|-----------------|-----------------|-----------------|-----------------|
G|-8-8-8-8-8-8-8-8-|-8-8-8-8-8-8-8-8-|-8-8-8-8-8-8-8-8-|-8-8-8-8-8-8-8-8-|
D|-8-8-8-8-8-8-8-8-|-8-8-8-8-8-8-8-8-|-8-8-8-8-8-8-8-8-|-8-8-8-8-8-8-8-8-|
A|-6-6-6-6-6-6-6-6-|-6-6-6-6-6-6-6-6-|-6-6-6-6-6-6-6-6-|-6-6-6-6-6-6-6-6-|
E|-----------------|-----------------|-----------------|-----------------|
         PM                 PM                PM               PM 
e|-----------------|-----------------|-----------------|-----------------|
B|-----------------|-----------------|-----------------|-----------------|
G|-----------------|-----------------|-----------------|-----------------|
D|-6-6-6-6-6-6-6-6-|-6-6-6-6-6-6-6-6-|-6-6-6-6-6-6-6-6-|-6-6-6-6-6-6-6-6-|
A|-6-6-6-6-6-6-6-6-|-6-6-6-6-6-6-6-6-|-6-6-6-6-6-6-6-6-|-6-6-6-6-6-6-6-6-|
E|-4-4-4-4-4-4-4-4-|-4-4-4-4-4-4-4-4-|-4-4-4-4-4-4-4-4-|-4-4-4-4-4-4-4-4-|
         PM                 PM                PM               PM 


[Pre-Chorus 1]

e|-----------------|-----------------|-----------------|-----------------|
B|-----------------|-----------------|-----------------|-----------------|
G|-----------------|-----------------|-----------------|-----------------|
D|-8-8-8-8-8-8-8-8-|-8-8-8-8-8-8-8-8-|-6-6-6-6-6-6-6-6-|-6-6-6-6-6-6-6-6-|
A|-8-8-8-8-8-8-8-8-|-8-8-8-8-8-8-8-8-|-6-6-6-6-6-6-6-6-|-6-6-6-6-6-6-6-6-|
E|-6-6-6-6-6-6-6-6-|-6-6-6-6-6-6-6-6-|-4-4-4-4-4-4-4-4-|-4-4-4-4-4-4-4-4-|
         PM                 PM                PM               PM 
e|-----------------|-----------------|-------|
B|-----------------|-----------------|-------|
G|-----------------|-----------------|-------|
D|-8-8-8-8-8-8-8-8-|-8-8-8-8-8-8-8-8-|---6---|
A|-8-8-8-8-8-8-8-8-|-8-8-8-8-8-8-8-8-|---6---|
E|-6-6-6-6-6-6-6-6-|-6-6-6-6-6-6-6-6-|---4---|
         PM                PM  


[Chorus 1]

e|-----------------|-----------------|-----------------|-----------------|
B|-----------------|-----------------|-----------------|-----------------|
G|-8-8-8-8-8-8-8-8-|-8-8-8-8-8-8-8-8-|-----------------|-----------------|
D|-8-8-8-8-8-8-8-8-|-8-8-8-8-8-8-8-8-|-6-6-6-6-6-6-6-6-|-6-6-6-6-6-6-6-6-|
A|-6-6-6-6-6-6-6-6-|-6-6-6-6-6-6-6-6-|-6-6-6-6-6-6-6-6-|-6-6-6-6-6-6-6-6-|
E|-----------------|-----------------|-4-4-4-4-4-4-4-4-|-4-4-4-4-4-4-4-4-|

e|-----------------|-----------------|-----------------|-----------------|
B|-----------------|-----------------|-----------------|-----------------|
G|-----------------|-----------------|-----------------|-----------------|
D|-8-8-8-8-8-8-8-8-|-8-8-8-8-8-8-8-8-|-6-6-6-6-6-6-6-6-|-6-6-6-6-6-6-6-6-|
A|-8-8-8-8-8-8-8-8-|-8-8-8-8-8-8-8-8-|-6-6-6-6-6-6-6-6-|-6-6-6-6-6-6-6-6-|
E|-6-6-6-6-6-6-6-6-|-6-6-6-6-6-6-6-6-|-4-4-4-4-4-4-4-4-|-4-4-4-4-4-4-4-4-|

e|------------------------------|
B|------------------------------|
G|------------------------------|
D|---------------8--------------|
A|-6--6--6--6--6----------------|
E|------------------4--4--4--4--|


[Verse 2]

e|-----------------|-----------------|-----------------|-----------------|
B|-----------------|-----------------|-----------------|-----------------|
G|-8-8-8-8-8-8-8-8-|-8-8-8-8-8-8-8-8-|-8-8-8-8-8-8-8-8-|-8-8-8-8-8-8-8-8-|
D|-8-8-8-8-8-8-8-8-|-8-8-8-8-8-8-8-8-|-8-8-8-8-8-8-8-8-|-8-8-8-8-8-8-8-8-|
A|-6-6-6-6-6-6-6-6-|-6-6-6-6-6-6-6-6-|-6-6-6-6-6-6-6-6-|-6-6-6-6-6-6-6-6-|
E|-----------------|-----------------|-----------------|-----------------|
         PM                 PM                PM               PM 
e|-----------------|-----------------|-----------------|-----------------|
B|-----------------|-----------------|-----------------|-----------------|
G|-----------------|-----------------|-----------------|-----------------|
D|-6-6-6-6-6-6-6-6-|-6-6-6-6-6-6-6-6-|-6-6-6-6-6-6-6-6-|-6-6-6-6-6-6-6-6-|
A|-6-6-6-6-6-6-6-6-|-6-6-6-6-6-6-6-6-|-6-6-6-6-6-6-6-6-|-6-6-6-6-6-6-6-6-|
E|-4-4-4-4-4-4-4-4-|-4-4-4-4-4-4-4-4-|-4-4-4-4-4-4-4-4-|-4-4-4-4-4-4-4-4-|
         PM                 PM                PM               PM 


[Pre-Chorus 2]

e|-----------------|-----------------|-----------------|-----------------|
B|-----------------|-----------------|-----------------|-----------------|
G|-8-8-8-8-8-8-8-8-|-8-8-8-8-8-8-8-8-|-8-8-8-8-8-8-8-8-|-8-8-8-8-8-8-8-8-|
D|-8-8-8-8-8-8-8-8-|-8-8-8-8-8-8-8-8-|-8-8-8-8-8-8-8-8-|-8-8-8-8-8-8-8-8-|
A|-6-6-6-6-6-6-6-6-|-6-6-6-6-6-6-6-6-|-6-6-6-6-6-6-6-6-|-6-6-6-6-6-6-6-6-|
E|-----------------|-----------------|-----------------|-----------------|
         PM                 PM                PM               PM 


[Chorus 2]

e|-----------------|-----------------|-----------------|-----------------|
B|-----------------|-----------------|-----------------|-----------------|
G|-8-8-8-8-8-8-8-8-|-8-8-8-8-8-8-8-8-|-----------------|-----------------|
D|-8-8-8-8-8-8-8-8-|-8-8-8-8-8-8-8-8-|-6-6-6-6-6-6-6-6-|-6-6-6-6-6-6-6-6-|
A|-6-6-6-6-6-6-6-6-|-6-6-6-6-6-6-6-6-|-6-6-6-6-6-6-6-6-|-6-6-6-6-6-6-6-6-|
E|-----------------|-----------------|-4-4-4-4-4-4-4-4-|-4-4-4-4-4-4-4-4-|

e|-----------------|-----------------|-----------------|-----------------|
B|-----------------|-----------------|-----------------|-----------------|
G|-----------------|-----------------|-----------------|-----------------|
D|-8-8-8-8-8-8-8-8-|-8-8-8-8-8-8-8-8-|-6-6-6-6-6-6-6-6-|-6-6-6-6-6-6-6-6-|
A|-8-8-8-8-8-8-8-8-|-8-8-8-8-8-8-8-8-|-6-6-6-6-6-6-6-6-|-6-6-6-6-6-6-6-6-|
E|-6-6-6-6-6-6-6-6-|-6-6-6-6-6-6-6-6-|-4-4-4-4-4-4-4-4-|-4-4-4-4-4-4-4-4-|


[Bridge]

e|------------------------------|-------------------------------|
B|------------------------------|-------------------------------|
G|------------------------------|-----------------8-------------|
D|---------------8--------------|---------------8-8-------------|
A|-6--6--6--6--6----------------|-6--6--6--6--6---6-------------|
E|------------------4--4--4--4--|-------------------4--4--4--4--|


[Verse 3]

e|-------------------------------|----------3--------------3-----|
B|----------8--------------8-----|-------------4--------------4--|
G|-------------8---------------8-|-------------------------------|
D|-6--6--6---------6--6--6-------|-------------------------------|
A|-------------------------------|-------------------------------|
E|-------------------------------|--4--4--4--------4--4--4-------|


[Pre-Chorus 3]

e|-----------------|-----------------|-------|
B|-----------------|-----------------|-------|
G|-----------------|-----------------|-------|
D|-8-8-8-8-8-8-8-8-|-8-8-8-8-8-8-8-8-|---6---|
A|-8-8-8-8-8-8-8-8-|-8-8-8-8-8-8-8-8-|---6---|
E|-6-6-6-6-6-6-6-6-|-6-6-6-6-6-6-6-6-|---4---|
         PM                 PM


[Chorus 3]

e|-----------------|-----------------|-----------------|-----------------|
B|-----------------|-----------------|-----------------|-----------------|
G|-8-8-8-8-8-8-8-8-|-8-8-8-8-8-8-8-8-|-----------------|-----------------|
D|-8-8-8-8-8-8-8-8-|-8-8-8-8-8-8-8-8-|-6-6-6-6-6-6-6-6-|-6-6-6-6-6-6-6-6-|
A|-6-6-6-6-6-6-6-6-|-6-6-6-6-6-6-6-6-|-6-6-6-6-6-6-6-6-|-6-6-6-6-6-6-6-6-|
E|-----------------|-----------------|-4-4-4-4-4-4-4-4-|-4-4-4-4-4-4-4-4-|

e|-----------------|-----------------|-----------------|-----------------|
B|-----------------|-----------------|-----------------|-----------------|
G|-----------------|-----------------|-----------------|-----------------|
D|-8-8-8-8-8-8-8-8-|-8-8-8-8-8-8-8-8-|-6-6-6-6-6-6-6-6-|-6-6-6-6-6-6-6-6-|
A|-8-8-8-8-8-8-8-8-|-8-8-8-8-8-8-8-8-|-6-6-6-6-6-6-6-6-|-6-6-6-6-6-6-6-6-|
E|-6-6-6-6-6-6-6-6-|-6-6-6-6-6-6-6-6-|-4-4-4-4-4-4-4-4-|-4-4-4-4-4-4-4-4-|


[Outro]

e|-----------------|-----------------|-----------------|-----------------|
B|-----------------|-----------------|-----------------|-----------------|
G|-8-8-8-8-8-8-8-8-|-8-8-8-8-8-8-8-8-|-----------------|-----------------|
D|-8-8-8-8-8-8-8-8-|-8-8-8-8-8-8-8-8-|-6-6-6-6-6-6-6-6-|-6-6-6-6-6-6-6-6-| (x2)
A|-6-6-6-6-6-6-6-6-|-6-6-6-6-6-6-6-6-|-6-6-6-6-6-6-6-6-|-6-6-6-6-6-6-6-6-|
E|-----------------|-----------------|-4-4-4-4-4-4-4-4-|-4-4-4-4-4-4-4-4-|

e|-----------------|-----------------|-------|
B|-----------------|-----------------|-------|
G|-----------------|-----------------|-------|
D|-8-8-8-8-8-8-8-8-|-8-8-8-8-8-8-8-8-|---6---|
A|-8-8-8-8-8-8-8-8-|-8-8-8-8-8-8-8-8-|---6---|
E|-6-6-6-6-6-6-6-6-|-6-6-6-6-6-6-6-6-|---4---|



------------------------------------------------------------------------------------------------
                                       11. Ocean
------------------------------------------------------------------------------------------------
Tuning: Standard

Guitar 1 - Electric
Guitar 2 - Acoustic

[Intro]

Guitar 1
e|-----------------1--|------------------1--|
B|-----3--1-----3-----|------3--1-----3-----|
G|---2--------2-------|----2--------2-------|
D|-3--------3---------|--3--------3---------|
A|--------------------|---------------------|
E|--------------------|---------------------|

Guitar 2
e|-------------------------|-------------------------|-------------------------|-------------------------|
B|-------------------------|-------------------------|-------------------------|-------------------------|
G|-10-10-10-10-10-10-10-10-|-10-10-10-10-10-10-10-10-|-------------------------|-------------------------|
D|-10-10-10-10-10-10-10-10-|-10-10-10-10-10-10-10-10-|-10-10-10-10-10-10-10-10-|-10-10-10-10-10-10-10-10-|
A|--8--8--8--8--8--8--8--8-|--8--8--8--8--8--8--8--8-|-10-10-10-10-10-10-10-10-|-10-10-10-10-10-10-10-10-|
E|-------------------------|-------------------------|--8--8--8--8--8--8--8--8-|--8--8--8--8--8--8--8--8-|

e|-----------------|-----------------|
B|-----------------|-----------------|
G|-----------------|-----------------|
D|-8-8-8-8-8-8-8-8-|-8-8-8-8-8-8-8-8-| (x2)
A|-8-8-8-8-8-8-8-8-|-8-8-8-8-8-8-8-8-|
E|-6-6-6-6-6-6-6-6-|-6-6-6-6-6-6-6-6-|


[Verse 1]

Guitar 2
e|-------------------------|-------------------------|-------------------------|-------------------------|
B|-------------------------|-------------------------|-------------------------|-------------------------|
G|-10-10-10-10-10-10-10-10-|-10-10-10-10-10-10-10-10-|-------------------------|-------------------------|
D|-10-10-10-10-10-10-10-10-|-10-10-10-10-10-10-10-10-|-10-10-10-10-10-10-10-10-|-10-10-10-10-10-10-10-10-|
A|--8--8--8--8--8--8--8--8-|--8--8--8--8--8--8--8--8-|-10-10-10-10-10-10-10-10-|-10-10-10-10-10-10-10-10-|
E|-------------------------|-------------------------|--8--8--8--8--8--8--8--8-|--8--8--8--8--8--8--8--8-|

e|-----------------|-----------------|
B|-----------------|-----------------|
G|-----------------|-----------------|
D|-8-8-8-8-8-8-8-8-|-8-8-8-8-8-8-8-8-| (x2)
A|-8-8-8-8-8-8-8-8-|-8-8-8-8-8-8-8-8-|
E|-6-6-6-6-6-6-6-6-|-6-6-6-6-6-6-6-6-|

e|-------------------------|-------------------------|-------------------------|-------------------------|
B|-------------------------|-------------------------|-------------------------|-------------------------|
G|-10-10-10-10-10-10-10-10-|-10-10-10-10-10-10-10-10-|-------------------------|-------------------------|
D|-10-10-10-10-10-10-10-10-|-10-10-10-10-10-10-10-10-|-10-10-10-10-10-10-10-10-|-10-10-10-10-10-10-10-10-|
A|--8--8--8--8--8--8--8--8-|--8--8--8--8--8--8--8--8-|-10-10-10-10-10-10-10-10-|-10-10-10-10-10-10-10-10-|
E|-------------------------|-------------------------|--8--8--8--8--8--8--8--8-|--8--8--8--8--8--8--8--8-|

e|-----------------|-----------------|
B|-----------------|-----------------|
G|-----------------|-----------------|
D|-8-8-8-8-8-8-8-8-|-8-8-8-8-8-8-8-8-| (x2)
A|-8-8-8-8-8-8-8-8-|-8-8-8-8-8-8-8-8-|
E|-6-6-6-6-6-6-6-6-|-6-6-6-6-6-6-6-6-|


[Pre-Chorus 1]

e|-------------------------|-------------------------|-----------------|-----------------|
B|-------------------------|-------------------------|-----------------|-----------------|
G|-------------------------|-------------------------|-----------------|-----------------|
D|-10-10-10-10-10-10-10-10-|-10-10-10-10-10-10-10-10-|-8-8-8-8-8-8-8-8-|-8-8-8-8-8-8-8-8-|
A|-10-10-10-10-10-10-10-10-|-10-10-10-10-10-10-10-10-|-8-8-8-8-8-8-8-8-|-8-8-8-8-8-8-8-8-|
E|--8--8--8--8--8--8--8--8-|--8--8--8--8--8--8--8--8-|-6-6-6-6-6-6-6-6-|-6-6-6-6-6-6-6-6-|

e|-------------------------|-------------------------|-------|
B|-------------------------|-------------------------|-------|
G|-------------------------|-------------------------|-------|
D|-10-10-10-10-10-10-10-10-|-10-10-10-10-10-10-10-10-|---8---|
A|-10-10-10-10-10-10-10-10-|-10-10-10-10-10-10-10-10-|---8---|
E|--8--8--8--8--8--8--8--8-|--8--8--8--8--8--8--8--8-|---6---|


[Chorus 1]

Guitar 1
e|-------------------------|-------------------------|-------------------------|-------------------------|
B|-------------------------|-------------------------|-------------------------|-------------------------|
G|-10-10-10-10-10-10-10-10-|-10-10-10-10-10-10-10-10-|-------------------------|-------------------------|
D|-10-10-10-10-10-10-10-10-|-10-10-10-10-10-10-10-10-|-10-10-10-10-10-10-10-10-|-10-10-10-10-10-10-10-10-|
A|--8--8--8--8--8--8--8--8-|--8--8--8--8--8--8--8--8-|-10-10-10-10-10-10-10-10-|-10-10-10-10-10-10-10-10-|
E|-------------------------|-------------------------|--8--8--8--8--8--8--8--8-|--8--8--8--8--8--8--8--8-|

e|-----------------|-----------------|-------------------------|-------------------------|
B|-----------------|-----------------|-------------------------|-------------------------|
G|-----------------|-----------------|-------------------------|-------------------------|
D|-8-8-8-8-8-8-8-8-|-8-8-8-8-8-8-8-8-|-10-10-10-10-10-10-10-10-|-10-10-10-10-10-10-10-10-|
A|-8-8-8-8-8-8-8-8-|-8-8-8-8-8-8-8-8-|-10-10-10-10-10-10-10-10-|-10-10-10-10-10-10-10-10-|
E|-6-6-6-6-6-6-6-6-|-6-6-6-6-6-6-6-6-|--8--8--8--8--8--8--8--8-|--8--8--8--8--8--8--8--8-|

e|-------------------------|-------------------------|-------------------------|-------------------------|
B|-------------------------|-------------------------|-------------------------|-------------------------|
G|-10-10-10-10-10-10-10-10-|-10-10-10-10-10-10-10-10-|-------------------------|-------------------------|
D|-10-10-10-10-10-10-10-10-|-10-10-10-10-10-10-10-10-|-10-10-10-10-10-10-10-10-|-10-10-10-10-10-10-10-10-|
A|--8--8--8--8--8--8--8--8-|--8--8--8--8--8--8--8--8-|-10-10-10-10-10-10-10-10-|-10-10-10-10-10-10-10-10-|
E|-------------------------|-------------------------|--8--8--8--8--8--8--8--8-|--8--8--8--8--8--8--8--8-|

e|-----------------|-----------------|-------------------------|-------------------------|
B|-----------------|-----------------|-------------------------|-------------------------|
G|-----------------|-----------------|-------------------------|-------------------------|
D|-8-8-8-8-8-8-8-8-|-8-8-8-8-8-8-8-8-|-10-10-10-10-10-10-10-10-|-10-10-10-10-10-10-10-10-|
A|-8-8-8-8-8-8-8-8-|-8-8-8-8-8-8-8-8-|-10-10-10-10-10-10-10-10-|-10-10-10-10-10-10-10-10-|
E|-6-6-6-6-6-6-6-6-|-6-6-6-6-6-6-6-6-|--8--8--8--8--8--8--8--8-|--8--8--8--8--8--8--8--8-|


[Verse 2]

Guitar 1
e|-------------------------|-------------------------|-------------------------|-------------------------|
B|-------------------------|-------------------------|-------------------------|-------------------------|
G|-10-10-10-10-10-10-10-10-|-10-10-10-10-10-10-10-10-|-------------------------|-------------------------|
D|-10-10-10-10-10-10-10-10-|-10-10-10-10-10-10-10-10-|-10-10-10-10-10-10-10-10-|-10-10-10-10-10-10-10-10-|
A|--8--8--8--8--8--8--8--8-|--8--8--8--8--8--8--8--8-|-10-10-10-10-10-10-10-10-|-10-10-10-10-10-10-10-10-|
E|-------------------------|-------------------------|--8--8--8--8--8--8--8--8-|--8--8--8--8--8--8--8--8-|

e|-----------------|-----------------|-------------------------|-------------------------|
B|-----------------|-----------------|-------------------------|-------------------------|
G|-----------------|-----------------|-------------------------|-------------------------|
D|-8-8-8-8-8-8-8-8-|-8-8-8-8-8-8-8-8-|-10-10-10-10-10-10-10-10-|-10-10-10-10-10-10-10-10-|
A|-8-8-8-8-8-8-8-8-|-8-8-8-8-8-8-8-8-|-10-10-10-10-10-10-10-10-|-10-10-10-10-10-10-10-10-|
E|-6-6-6-6-6-6-6-6-|-6-6-6-6-6-6-6-6-|--8--8--8--8--8--8--8--8-|--8--8--8--8--8--8--8--8-|

e|-------------------------|-------------------------|-------------------------|-------------------------|
B|-------------------------|-------------------------|-------------------------|-------------------------|
G|-10-10-10-10-10-10-10-10-|-10-10-10-10-10-10-10-10-|-------------------------|-------------------------|
D|-10-10-10-10-10-10-10-10-|-10-10-10-10-10-10-10-10-|-10-10-10-10-10-10-10-10-|-10-10-10-10-10-10-10-10-|
A|--8--8--8--8--8--8--8--8-|--8--8--8--8--8--8--8--8-|-10-10-10-10-10-10-10-10-|-10-10-10-10-10-10-10-10-|
E|-------------------------|-------------------------|--8--8--8--8--8--8--8--8-|--8--8--8--8--8--8--8--8-|

e|-----------------|-----------------|-------------------------|-------------------------|
B|-----------------|-----------------|-------------------------|-------------------------|
G|-----------------|-----------------|-------------------------|-------------------------|
D|-8-8-8-8-8-8-8-8-|-8-8-8-8-8-8-8-8-|-10-10-10-10-10-10-10-10-|-10-10-10-10-10-10-10-10-|
A|-8-8-8-8-8-8-8-8-|-8-8-8-8-8-8-8-8-|-10-10-10-10-10-10-10-10-|-10-10-10-10-10-10-10-10-|
E|-6-6-6-6-6-6-6-6-|-6-6-6-6-6-6-6-6-|--8--8--8--8--8--8--8--8-|--8--8--8--8--8--8--8--8-|


[Pre-Chorus 2]

e|-----------------|-----------------|-------------------------|-------------------------|
B|-----------------|-----------------|-------------------------|-------------------------|
G|-----------------|-----------------|-------------------------|-------------------------|
D|-8-8-8-8-8-8-8-8-|-8-8-8-8-8-8-8-8-|-10-10-10-10-10-10-10-10-|-10-10-10-10-10-10-10-10-|
A|-8-8-8-8-8-8-8-8-|-8-8-8-8-8-8-8-8-|-10-10-10-10-10-10-10-10-|-10-10-10-10-10-10-10-10-|
E|-6-6-6-6-6-6-6-6-|-6-6-6-6-6-6-6-6-|--8--8--8--8--8--8--8--8-|--8--8--8--8--8--8--8--8-|

e|-----------------|-----------------|-------------------------|------------|
B|-----------------|-----------------|-------------------------|------------|
G|-----------------|-----------------|-------------------------|------------|
D|-8-8-8-8-8-8-8-8-|-8-8-8-8-8-8-8-8-|-10-10-10-10-10-10-10-10-|---10-------|
A|-8-8-8-8-8-8-8-8-|-8-8-8-8-8-8-8-8-|-10-10-10-10-10-10-10-10-|---10---\\--|
E|-6-6-6-6-6-6-6-6-|-6-6-6-6-6-6-6-6-|--8--8--8--8--8--8--8--8-|----8---\\--|


[Chorus 3]

e|-----------------1--|------------------1--|
B|-----3--1-----3-----|------3--1-----3-----|
G|---2--------2-------|----2--------2-------|
D|-3--------3---------|--3--------3---------| (x2)
A|--------------------|---------------------|
E|--------------------|---------------------|


[Outro]

Guitar 1
e|--------------------------------|--------------------------------|
B|--------------------------------|--------------------------------|
G|-10--10--10--10--10--10--10--10-|--------------------------------|
D|-10--10--10--10--10--10--10--10-|-10--10--10--10--10--10--10--10-|
A|--8---8---8---8---8---8---8---8-|-10--10--10--10--10--10--10--10-|
E|--------------------------------|--8---8---8---8---8---8---8---8-|

e|------------------------|--------------------------------|
B|------------------------|--------------------------------|
G|------------------------|--------------------------------|
D|-8--8--8--8--8--8--8--8-|-10--10--10--10--10--10--10--10-|
A|-8--8--8--8--8--8--8--8-|-10--10--10--10--10--10--10--10-|
E|-6--6--6--6--6--6--6--6-|--8---8---8---8---8---8---8---8-|

e|--------------------------------|--------------------------------|
B|--------------------------------|--------------------------------|
G|-10--10--10--10--10--10--10--10-|--------------------------------|
D|-10--10--10--10--10--10--10--10-|-10--10--10--10--10--10--10--10-|
A|--8---8---8---8---8---8---8---8-|-10--10--10--10--10--10--10--10-|
E|--------------------------------|--8---8---8---8---8---8---8---8-|

e|------------------------|--------------------------------|
B|------------------------|--------------------------------|
G|------------------------|--------------------------------|
D|-8--8--8--8--8--8--8--8-|-10--10--10--10--10--10--10--10-|
A|-8--8--8--8--8--8--8--8-|-10--10--10--10--10--10--10--10-|
E|-6--6--6--6--6--6--6--6-|--8---8---8---8---8---8---8---8-|

e|-----|
B|-----|
G|-----|
D|--3--|
A|--3--|
E|--1--|


************************************

| x   Dead note
| ~   Vibrato
| h   Hammer-on
| PM  Palm mute
| /   Slide up
| \\  Pick slide
|    Harmonic 

************************************

            
            
Suggest correction
Creating personal tab
Creating personal tab
You can edit any tab online and save it as your Personal.

You can edit, replace or remove any tab part or add personal notes – all changes will be seen only by you.

Personal tabs can be accessed anytime from any device, even offline.
Learn more »
comments
print report bad tab
guest
You may want to rate the tab now too:
select rating
Wanna post a correction for this tab? Suggest correction