Oops, an error
Loading. Please wait.

Rhode Island bass

633 views 6 this week
1 commentread comment
1 2 3 4 5
x 5
add to favorites
×
Save as Personal and add changes to this tab that will be seen only by you. Learn more ›
×
You can save this tab as Personal to edit and correct it or add notes. All changes will be seen only by you. Learn more »
launch autoscroll
font size
0
reset
guitar tuner
edit
Autoscroll
slow
fast
+/-
esc
set tempo
stop
Author
Difficulty
Tip: Keep in mind the time signature is wacky haha but I'm sure anyone can figure this out by just playing
 along to the song :)

Intro (REST):
I wonder how that bike trip's going 
I wonder if the government knows he's hiding 
---
It'd probably take a few more months 
Florida's a long way from Rhode Island 
G|-----------------------------
D|-----------------------------
A|--8--------7-----------------
E|--------------------8--------    (x2)


Verse:
I watch her rest her hands inside her lap 
I try to focus hard as her eyes don't make the frame 
I try to work up the courage to kiss the bottom half of her face 
G|----------------------------------------------------
D|----------------------------------------------------
A|--8--8--8--7--7--7-----------10-----------10--------
E|--------------------8--8--8------8--8--8------8--8--

G|--------------------------------------------------
D|--------------------------------------------------
A|--8--8--8--7--7--7-----------7-----------7--------
E|--------------------8--8--8-----8--8--8-----8--8--    (both x4)


And Mora cut her hair in Baltimore right before I left 
G|-----------------------------------
D|-----------------------------------
A|-----------------------------------
E|--5-----------------------------5--

G|----------------------------------------------------
D|----------------------------------------------------
A|--8--8--8--7--7--7-----------10-----------10--------
E|--------------------8--8--8------8--8--8------8--8--    (x4)


I watch her sitting by herself talking to herself, 
Breathing calmly then try to catch her breath. 
G|-----------------------------------
D|-----------------------------------
A|-----------------------------------
E|--5-----------------------------5--

G|----------------------------------------------------
D|----------------------------------------------------
A|--8--8--8--7--7--7-----------10-----------10--------
E|--------------------8--8--8------8--8--8------8--8--

G|--------------------------------------------------
D|--------------------------------------------------
A|--8--8--8--7--7--7-----------7-----------7--------
E|--------------------8--8--8-----8--8--8-----8--8--

G|-----------------------------------------------------------------
D|-----------------------------------------------------------------
A|--8-----8-----8-----8-----8-----8-----10-----10-----10-----10\---
E|-----------------------------------------------------------------


Casanova just can't turn the charm on 
Or find any of the right vibrations 
G|-----------------------------------------------------
D|-----------------------------------------------------
A|--8--------8--------8-----10--------10--------10-----
E|-----------------------------------------------------

G|----------------------------------------------------
D|----------------------------------------------------
A|-----------10-----------------------10--------------
E|--8------------------8-----8------------------8-----


I know these women if he don't wanna do it 
Then they are probably just gunna make him 
G|-----------------------------------------------------
D|-----------------------------------------------------
A|--8--------8--------8-----10--------10--------10-----
E|-----------------------------------------------------

G|--------------------------------------------------
D|--------------------------------------------------
A|--------------------------------------------------
E|--8--------8--------8-----6--------6--------6-----


You can never tell when their fucking around 
G|---------------------------------------
D|---------------------------------------
A|--8--------8-----8--------10-----------
E|---------------------------------------



Everything you're feeling is common
Even though you never felt so alone 
G|----------------------------------------------------
D|----------------------------------------------------
A|--8--8--8--7--7--7-----------10-----------10--------
E|--------------------8--8--8------8--8--8------8--8--

G|--------------------------------------------------
D|--------------------------------------------------
A|--8--8--8--7--7--7-----------7-----------7--------
E|--------------------8--8--8-----8--8--8-----8--8-- 


I could probably catch a ride to your house 
And borrow a bike to get back home 
G|----------------------------------------------------
D|----------------------------------------------------
A|--8--8--8--7--7--7-----------10-----------10--------
E|--------------------8--8--8------8--8--8------8--8--

G|-----------------------
D|-----------------------
A|--8--8--8--7--7--7-----
E|--------------------8--


She says you gotta promise not to break 
No matter how far you are bent  
G|----------------------------------------------------
D|----------------------------------------------------
A|--8--8--8--7--7--7-----------10-----------10--------
E|--------------------8--8--8------8--8--8------8--8--

G|--------------------------------------------------
D|--------------------------------------------------
A|--8--8--8--7--7--7-----------7-----------7--------
E|--------------------8--8--8-----8--8--8-----8--8-- 


She says I gotta shift my position 
And try to get comfortable again 
G|----------------------------------------------------
D|----------------------------------------------------
A|--8--8--8--7--7--7-----------10-----------10--------
E|--------------------8--8--8------8--8--8------8--8--

G|-----------------------
D|-----------------------
A|--8--8--8--7--7--7-----
E|--------------------8--


We both choose the same tone. 
Mine was an alarm clock, ringing from a cell phone 
G|-----------------------------------
D|-----------------------------------
A|-----------------------------------
E|--5-----------------------------5--

G|----------------------------------------------------
D|----------------------------------------------------
A|--8--8--8--7--7--7-----------10-----------10--------
E|--------------------8--8--8------8--8--8------8--8--

G|--------------------------------------------------
D|--------------------------------------------------
A|--8--8--8--7--7--7-----------7-----------7--------
E|--------------------8--8--8-----8--8--8-----8--8--


Mouth the words to me so we can keep things quiet 
And I'll still know exactly what you mean. 
G|-----------------------------------
D|-----------------------------------
A|-----------------------------------
E|--5-----------------------------5--

G|----------------------------------------------------
D|----------------------------------------------------
A|--8--8--8--7--7--7-----------10-----------10--------
E|--------------------8--8--8------8--8--8------8--8--

G|--------------------------------------------------
D|--------------------------------------------------
A|--8--8--8--7--7--7-----------7-----------7--------
E|--------------------8--8--8-----8--8--8-----8--8--

G|-----------------------------------------------------------------
D|-----------------------------------------------------------------
A|--8-----8-----8-----8-----8-----8-----10-----10-----10-----10\---
E|-----------------------------------------------------------------


And it is probably just my friends fucking around. 
G|-----------------------------------------------------
D|-----------------------------------------------------
A|--8--------8--------8-----10--------10--------10-----
E|-----------------------------------------------------

G|----------------------------------------------------
D|----------------------------------------------------
A|-----------10-----------------------10--------------
E|--8------------------8-----8------------------8-----


Yeah it is probably just my friends fucking around. 
They never cut me any slack. 
G|-----------------------------------------------------
D|-----------------------------------------------------
A|--8--------8--------8-----10--------10--------10-----
E|-----------------------------------------------------

G|--------------------------------------------------
D|--------------------------------------------------
A|--------------------------------------------------
E|--8--------8--------8-----6--------6--------6-----


It's just my friends fucking around.
G|---------------------------------------
D|---------------------------------------
A|--8--------8-----8--------10-----------
E|---------------------------------------


(BRIDGE)
G|---------------------------------------------------------
D|---------------------------------------------------------
A|--8--8--8--8--8--8--8--8--8--8--8--8--8--------7---------
E|-----------------------------------------------------10--

G|---------------------------------------------------------
D|---------------------------------------------------------
A|------------------------------------------------------7--
E|--8--8--8--8--8--8--8--8--8--8--8--8--8--------10--------    (both x2)


G|---------------------------------------------------------
D|---------------------------------------------------------
A|--8--8--8--8--8--8--8--8--8--8--8--8--8--------7---------
E|-----------------------------------------------------10--

G|--------------------------------------------------
D|--------------------------------------------------
A|--------------------------------------------------
E|--8--8--8--8--8--8--8--8--8--8--8--8--8--8--8--8--

G|------------------------------------------------------------------
D|------------------------------------------------------------------
A|------------------------------------------------------------------
E|--10--10--10--10--10--10--10--10--10--10--10--10--10--10--10--10--

G|-----------------------------------------------------
D|-----------------------------------------------------
A|--8--8--8--8--8--8--8--8--8--8--8--8--8--8--8--8-----
E|--------------------------------------------------1--


(REST)
And it's probably just my friends fucking around
---
G|----------------------------------------------------
D|----------------------------------------------------
A|-----------10-----------------------10--------------
E|--8------------------8-----8------------------8-----

Yeah it is probably just my friends fucking around. 
They never cut me any slack. 
G|-----------------------------------------------------
D|-----------------------------------------------------
A|--8--------8--------8-----10--------10--------10-----
E|-----------------------------------------------------

G|--------------------------------------------------
D|--------------------------------------------------
A|--------------------------------------------------
E|--8--------8--------8-----6--------6--------6-----


It's just my friends fucking around
G|---------------------------------------------------
D|---------------------------------------------------
A|--8-----8-----8-----10-----------------------------
E|------------------------------------8--------------

            
            
Suggest correction
Creating personal tab
Creating personal tab
You can edit any tab online and save it as your Personal.

You can edit, replace or remove any tab part or add personal notes – all changes will be seen only by you.

Personal tabs can be accessed anytime from any device, even offline.
Learn more »
comments
print report bad tab
1 comment total.
0 reply
XxThreeCheersxX 13,451 Jan 21, 2016 08:56 AM

There may or may not be a tiny missed fill in the bridge, but excellent tab, five stars!

guest
You may want to rate the tab now too:
select rating
Wanna post a correction for this tab? Suggest correction