Oops, an error
Loading. Please wait.

The Plan Fuck Jobs tab

version 1
version 1

Whole song

4,319 views 15 this week
1 commentread comment
1 2 3 4 5
x 5
add to favorites
×
Save as Personal and add changes to this tab that will be seen only by you. Learn more ›
×
You can save this tab as Personal to edit and correct it or add notes. All changes will be seen only by you. Learn more »
launch autoscroll
font size
0
reset
how to read this tab
guitar tuner
edit
Autoscroll
slow
fast
+/-
esc
set tempo
stop
Author
Tuning: Standard

[Verse]
'I fucking hate the comments..'
e|------------------------------------------|
B|------------------------------------------|
G|------------------------------------------|
D|--5-----5---------------------------------|
A|--3--3--3--3------------------------------|
E|-----1-----1------------------------------|

'Everyone you think you're better than...'
e|------------------------------------------|
B|------------------------------------------|
G|------------------------------------------|
D|------------------------------------------|
A|--5--3--3--3------------------------------|
E|--3--1--5--1------------------------------|

[Interlude] (x2)
e|------------------------------------------|
B|------------------------------------------|
G|------------------------------------------|
D|--5---------------------------------------|
A|--3--3--7--5------------------------------|
E|-----1--5--3------------------------------|

[Verse]
'Never underestimate...'
e|------------------------------------------|
B|------------------------------------------|
G|------------------------------------------|
D|--5-----5---------------------------------|
A|--3--3--3--3------------------------------|
E|-----1-----1------------------------------|

'And I will take cold showers...'
e|------------------------------------------|
B|------------------------------------------|
G|------------------------------------------|
D|------------------------------------------|
A|--5--3--5--3------------------------------|
E|--3--1--3--1------------------------------|

[Interlude] 
e|------------------------------------------|
B|------------------------------------------|
G|------------------------------------------|
D|--5---------------------------------------|
A|--3--3--7--5------------------------------|
E|-----1--5--3------------------------------|

[Verse]
'I could feel myself falling...'
e|------------------------------------------|
B|------------------------------------------|
G|------------------------------------------|
D|--------5---------------------------------|
A|--3--5--3--7------------------------------|
E|--1--3-----5------------------------------|

'I fucking hate the comments..'
e|------------------------------------------|
B|------------------------------------------|
G|------------------------------------------|
D|--5-----5---------------------------------|
A|--3--3--3--3------------------------------|
E|-----1-----1------------------------------|

'Everyone you think you're better than...'
e|------------------------------------------|
B|------------------------------------------|
G|------------------------------------------|
D|------------------------------------------|
A|--5--3--3--3------------------------------|
E|--3--1--5--1------------------------------|

'When my mind is uncertain...'
e|------------------------------------------|
B|------------------------------------------|
G|------------------------------------------|
D|--------5---------------------------------|
A|--3--5--3--7------------------------------|
E|--1--3-----5------------------------------|

            
            
Suggest correction
Creating personal tab
Creating personal tab
You can edit any tab online and save it as your Personal.

You can edit, replace or remove any tab part or add personal notes – all changes will be seen only by you.

Personal tabs can be accessed anytime from any device, even offline.
Learn more »
comments
print report bad tab
1 comment total.
+1 reply
irdatwun 144 Oct 10, 2015 10:02 AM

Everything there seems perfect but it would be nice to have the riffs there aswell

guest
You may want to rate the tab now too:
select rating
Wanna post a correction for this tab? Suggest correction