Oops, an error
Loading. Please wait.

Dusk Is Like A Dagger bass

58 views 1 this week
no commentswrite comment
1 2 3 4 5
x 5
add to favorites
×
Save as Personal and add changes to this tab that will be seen only by you. Learn more ›
×
You can save this tab as Personal to edit and correct it or add notes. All changes will be seen only by you. Learn more »
launch autoscroll
font size
0
reset
guitar tuner
edit
Autoscroll
slow
fast
+/-
esc
set tempo
stop
Author
Difficulty
Tabbed by: bassm99
E-mail: alanmatthews1966@yahoo.co.uk

Tuning: E, A, D, G

"Dusk Is Like A Dagger" from the album "Fragments Of Memories" (1997)
Written by Diego Merletto

Bass Starts: 0:07

Intro: 
 
G|---------------------------------------------------------------------------------|
D|---------------------------------------------------------------------------------|
A|--6-6-6-6-6-6-----------------------------------------1-1-1-1-1-2-1--------------|
E|---------------6-6--7-7-7-7-7-7-7-7--1-1-1-1-1-1-1-1----------------2-(x1)-------|

G|---------------------------------------------------------------------------------|
D|---------------------------------------------------------------------------------|
A|--6-6-6-6-6-6-----------------------------------------1-1-1-1-1-1-1-1-(x1)-------|
E|---------------6-6--7-7-7-7-7-7-7-7--1-1-1-1-1-1-1-1-----------------------------|

G|---------------------------------------------------------------------------------|
D|---------------------------------------------------------------------------------|
A|--10-10-10-10-10-10-10-10--12-12-12-12-12-12-12-12--6-6-6-6-6-6-6-6--------------|
E|---------------------------------------------------------------------8-8-8-8-----|

G|---------------------------------------------------------------------------------|
D|---------------------------------------------------------------------------------|
A|---------------------------------------------------------------------------------|
E|--10-10-10-10-(x4)---------------------------------------------------------------|

G|---------------------------------------------------------------------------------|
D|---------------------------------------------------------------------------------|
A|--6-6-6-6-6-6-----------------------------------------1-1-1-1-1-1-1-1-(x1)-------|
E|---------------6-6--7-7-7-7-7-7-7-7--1-1-1-1-1-1-1-1-----------------------------|

G|---------------------------------------------------------------------------------|
D|---------------------------------------------------------------------------------|
A|--6-6-6-6-6-6-----------------------------------------1-1-1-1-1-2-1--------------|
E|---------------6-6--7-7-7-7-7-7-7-7--1-1-1-1-1-1-1-1----------------2-(x1)-------|

Verse:

G|---------------------------------------------------------------------------------|
D|---------------------------------------------------------------------------------|
A|--6-6-6-6-6-6-----------------------------------------1-1-1-1-1-2-1--------------|
E|---------------6-6--7-7-7-7-7-7-7-7--1-1-1-1-1-1-1-1----------------2-(x1)-------|

G|---------------------------------------------------------------------------------|
D|---------------------------------------------------------------------------------|
A|--6-6-6-6-6-6-----------------------------------------1-1-1-1-1-1-1-1-(x1)-------|
E|---------------6-6--7-7-7-7-7-7-7-7--1-1-1-1-1-1-1-1-----------------------------|

Pre Chorus: (Play 4 Times)

G|---------------------------------------------------------------------------------|
D|---------------------------------------------------------------------------------|
A|--10-10-10-10-10-10-10-10--12-12-12-12-12-12-12-12--6-6-6-6-6-6-6-6--------------|
E|---------------------------------------------------------------------8-8-8-8-----|

G|---------------------------------------------------------------------------------|
D|---------------------------------------------------------------------------------|
A|---------------------------------------------------------------------------------|
E|--10-10-10-10--------------------------------------------------------------------|

Chorus:

G|---------------------------------------------------------------------------------|
D|---------------------------------------------------------------------------------|
A|-------------------5-5-5-5-5-5-5-5--10-10-10-10-10-10-10-10--9-9-9-9-9-9-9-9-----|
E|--7-7-7-7-7-7-7-7----------------------------------------------------------------|

G|---------------------------------------------------------------------------------|
D|---------------------------------------------------------------------------------|
A|-------------------5-5-5-5-5-5-5-5--10-10-10-10-10-10-10-10--9-9-9-9-9--10-9-----|
E|--7-7-7-7-7-7-7-7----------------------------------------------------------------|

G|---------------------------------------------------------------------------------|
D|---------------------------------------------------------------------------------|
A|-------------------5-5-5-5-5-5-5-5--10-10-10-10-10-10-10-10--9-9-9-9-9--10-9-9---|
E|--7-7-7-7-7-7-7-7----------------------------------------------------------------|

G|---------------------------------------------------------------------------------|
D|---------------------------------------------------------------------------------|
A|-------------------5-5-5-5-5-5-5-5--10-10-10-10-10-10-10-10--9-9-9-9-9-9-9-9-----|
E|--7-7-7-7-7-7-7-7----------------------------------------------------------------|

Pre Verse:

G|---------------------------------------------------------------------------------|
D|---------------------------------------------------------------------------------|
A|--6-6-6-6-6-6-----------------------------------------1-1-1-1-1-2-1--------------|
E|---------------6-6--7-7-7-7-7-7-7-7--1-1-1-1-1-1-1-1----------------2-(x1)-------|

G|---------------------------------------------------------------------------------|
D|---------------------------------------------------------------------------------|
A|--6-6-6-6-6-6-----------------------------------------1-1-1-1-1-1-1-1-(x1)-------|
E|---------------6-6--7-7-7-7-7-7-7-7--1-1-1-1-1-1-1-1-----------------------------|

Repeat Verse:

Repeat Pre Chorus:

Second Chorus: (Play 4 Times)

G|---------------------------------------------------------------------------------|
D|---------------------------------------------------------------------------------|
A|-------------------5-5-5-5-5-5-5-5--10-10-10-10-10-10-10-10--9-9-9-9-9-9--10-10--|
E|--7-7-7-7-7-7-7-7----------------------------------------------------------------|

Pre Verse: (Play Twice)

G|---------------------------------------------------------------------------------|
D|---------------------------------------------------------------------------------|
A|--6-6-6-6-6-6-----------------------------------------1-1-1-1-1-1-1-1------------|
E|---------------6-6--7-7-7-7-7-7-7-7--1-1-1-1-1-1-1-1-----------------------------|

Guitar Solo: (Play Twice)

G|---------------------------------------------------------------------------------|
D|---------------------------------------------------------------------------------|
A|--10-10-10-10-10-10-10-10--12-12-12-12-12-12-12-12--6-6-6-6-6-6-6-6--------------|
E|---------------------------------------------------------------------8-8-8-8-----|

G|---------------------------------------------------------------------------------|
D|---------------------------------------------------------------------------------|
A|---------------------------------------------------------------------------------|
E|--10-10-10-10--------------------------------------------------------------------|

Repeat Second Chorus:

End:

G|---------------------------------------------------------------------------------|
D|---------------------------------------------------------------------------------|
A|---------------------------------------------------------------------------------|
E|--7------------------------------------------------------------------------------|

            
            
Suggest correction
Creating personal tab
Creating personal tab
You can edit any tab online and save it as your Personal.

You can edit, replace or remove any tab part or add personal notes – all changes will be seen only by you.

Personal tabs can be accessed anytime from any device, even offline.
Learn more »
comments
print report bad tab
guest
You may want to rate the tab now too:
select rating
Wanna post a correction for this tab? Suggest correction