Oops, an error
Loading. Please wait.

Break Your Heart tab

version 2
version 2

Whole song

3,406 views 6 this week
1 commentread comment
1 2 3 4 5
x 10
add to favorites
×
Save as Personal and add changes to this tab that will be seen only by you. Learn more ›
×
You can save this tab as Personal to edit and correct it or add notes. All changes will be seen only by you. Learn more »
launch autoscroll
font size
0
reset
how to read this tab
guitar tuner
edit
Autoscroll
slow
fast
+/-
esc
set tempo
stop
Author
Difficulty
Gaslight Anthem - Break Your Heart
Email: cdberger98@gmail.com

Tuning: Standard

I just saw them live and I'm 99% sure it is correct. If I messed up at all comment
or email me.


Intro

e|-----------------| [x4]
B|-----------------|
G|-----------------|
D|-----9-----9---9-|
A|---7-----7---7---|
E|-0-----0---------|

Verse

It would break your heart...

e|---------------------------------| [x3]
B|---------------------------------|
G|---------------------------------|
D|-----9-------9-------9-----9---9-|
A|---7---7---7---7---7-----7---7---|
E|-9-------7-------0-----0---------|

...That I've lost myself...

e|---------------------------------|
B|---------------------------------|
G|---------------------------------|
D|-----9-----9---9-----9-----9---9-|
A|---7-----7---7-----7-----7---7---|
E|-5-----5---------7-----7---------|

There are things I have seen...     

e|---------------------------------|
B|---------------------------------|
G|---------------------------------|
D|-----9-------9-------9-----9---9-|
A|---7---7---7---7---7-----7---7---|
E|-9-------7-------0-----0---------|

That I never will tell...

e|---------------------------------| [x2]
B|---------------------------------|
G|---------------------------------|
D|-----9-----9---9-----9-----9---9-|
A|---7-----7---7-----7-----7---7---|
E|-5-----5---------0-----0---------|

...And inside myself...

e|-----------------|  
B|-----------------| 
G|-----------------| 
D|-----9-------9---| 
A|---7---7---7---7-| 
E|-5-------7-------| 

e|-----------------| [x2]
B|-----------------|
G|-----------------|
D|-----9-----9---9-|
A|---7-----7---7---|
E|-0-----0---------|

Chorus

And oh, my, my...

e|---------------------------------| [x3]
B|---------------------------------|
G|---------------------------------|
D|-----9-------9-------9-----9---9-|
A|---7---7---7---7---7-----7---7---|
E|-9-------7-------0-----0---------|

If I showed you my scars...

e|---------------------------------|
B|---------------------------------|
G|---------------------------------|
D|-----9-----9---9-----9-----9---9-|
A|---7-----7---7-----7-----7---7---|
E|-5-----5---------7-----7---------|

If I played you my favorite song...

e|-----------------------------------------------------------------|
B|-----------------------------------------------------------------|
G|-----------------------------------------------------------------|
D|-----9-----9---9-----9-----9---9-----9-------9-------9-----9---9-|
A|---7-----7---7-----7-----7---7-----7---7---7---7---7-----7---7---|
E|-0-----0---------5-----5---------9-------7-------5-----5---------|

Oh, my, my, it would break your heart

e|-----------------------------------------------------------------|
B|-----------------------------------------------------------------|
G|-----------------------------------------------------------------|
D|-----9-----9---9-----9-----9---9-----9-------9-------9-----9---9-|
A|---7-----7---7-----7-----7---7-----7---7---7---7---7-----7---7---|
E|-0-----0---------5-----5---------9-------7-------0-----0---------|

Verse 2

Lightly strum repeatedly for this verse
(Each chord is 4 strums)

It would bring you to tears...

e|------------| [x3]
B|------------|
G|------------|
D|-9--9--9--9-|
A|-7--7--7--7-|
E|-9--7--0--0-|

...On second hand love...

e|------------| [x2]
B|------------|
G|------------|
D|-9--9--9--9-|
A|-7--7--7--7-|
E|-9--9--7--7-|

But I trusted somebody...

e|------------------------------------------------------|
B|------------------------------------------------------|
G|------------------------------------------------------|
D|-9--9--9--9--9--9--9--9--9--9--9--9--9--9--9--9--9--9-|
A|-7--7--7--7--7--7--7--7--7--7--7--7--7--7--7--7--7--7-|
E|-9--7--0--0--5--5--0--0--5--5--0--0--9--7--0--0--0--0-|

Chorus

Verse 3

First two chords strum once, then steady strum for the rest

And you can lean on me...

e|------------| [x2]
B|------------|
G|------------|
D|-9--9--9--9-|
A|-7--7--7--7-|
E|-7--9--0--0-|

Chorus [x2]

Until it breaks your heart

e|---------|
B|---------|
G|---------|
D|-9--9--9-|
A|-7--7--7-|
E|-5--7--0-|





            
            
Suggest correction
Creating personal tab
Creating personal tab
You can edit any tab online and save it as your Personal.

You can edit, replace or remove any tab part or add personal notes – all changes will be seen only by you.

Personal tabs can be accessed anytime from any device, even offline.
Learn more »
comments
print report bad tab
1 comment total.
0 reply
TheUpsides1337 4,553 Nov 20, 2015 01:10 PM

Perfect tab!

guest
You may want to rate the tab now too:
select rating
Wanna post a correction for this tab? Suggest correction