Oops, an error
Loading. Please wait.

Saraba bass

version 1
version 1

Whole song

Interactive

205 views 3 this week
no commentswrite comment
1 2 3 4 5
3 more votes to show rating
add to favorites
×
Save as Personal and add changes to this tab that will be seen only by you. Learn more ›
×
You can save this tab as Personal to edit and correct it or add notes. All changes will be seen only by you. Learn more »
launch autoscroll
font size
0
reset
guitar tuner
edit
Autoscroll
slow
fast
+/-
esc
set tempo
stop
The GazettE - Saraba

Tabbed by: XxThreeCheersxX
E-mail: burdickash@gmail.com

Tuning: Full Step Down (DGCF)

Note: This song uses compound measure, so each beat is divided into three.  It's most likely in 12/8.  
This means it's a lot easier to count along to this song using threes instead of fours.

Happy playing!

Main Riff x 2
F|-----------------------------------------------------|
C|-----------------------------------------------------|
G|-------0-0-2-3-3-3-3-3-3-2-2-2-----------------------| 
D|-0-0-0-------------------------3-3-2/12-12-12-12-x-x-|

F|-------------------------------------------------|
C|-------------------------------5-5-4-2-2-2-2-x-x-|
G|-------0-0-2-3-3-3-3-3-3-2-2-2-------------------|
D|-0-0-0-------------------------------------------|

Verse x 4
F|-------------------------------------------------|
C|-------------------------------0-0---------------|
G|-------0-0-2-3-3-3-3-3-3-----------3-2-2-2-2-0-2-|
D|-0-0-0-------------------3-3-3-------------------|

Main Riff 

Verse

Pre-Chorus
F|---------------------------------------------------------------------------------------------------|
C|-------------0-0-0-0-0-0-0-------------------------------------------------------------------------|
G|-3-3-3-3-3-3---------------2-2-2-2-2-2-------------0-0-0-0-0-0-2-2-2-2-2-2-------------------0-0-2-|
D|---------------------------------------0-0-0-0-0-0-------------------------0-0-0-2-2-2-3-3-3-------|

F|--------------------------------------------------------------------------------------------------|
C|-------------0-0-0-0-0-0-0------------------------------------------------------------------------|
G|3-3-3-3-3-3---------------2-2-2-2-2-2-------------0-0-0-0-0-0-0-0-0-0-0-0-2-2-2-2-2-3-2x----------|
D|---------------------------------------0-0-0-0-0-0------------------------------------------------|

Chorus x 2
F|-------------------------------------------------------------------------------------------------|
C|-------0-0-0-------2-2-0-------0-0-0-------5-5-5-------0-0-0-------2-2-0-------0-0-0-2-2-2-0-2-0-|
G|-3-3-3-------------------3-3-3-------------------3-3-3-------------------3-3-3-------------------| 
D|-------------0-0-0-------------------0-0-0-------------------0-0-0-------------------------------|

Post-Chorus
F|-------------------------------------------------|
C|-------5-5-5-4-4-4-2-2-2-0-0-0-0-0-0-0-0-0-0x----|
G|-3-3-3-------------------------------------------|
D|-------------------------------------------------|

Main Riff

Pre-Chorus

Chorus x 2

Post-Chorus Variation
F|-------------------------------------------------------------------------------------|
C|-------5-5-5-4-4-4-2-2-2-0-0-0-------------------------------------------------------|
G|-3-3-3-------------------------2-2-2-2-2-2-2-2-2/14-14-14-14-14-14-14-14-14-14-14-14-|
D|-------------------------------------------------------------------------------------|

Bridge x 3
F|-------------------------------------------------------------------------------------------------|
C|-------------------------------------------------------------------------------------------------|
G|-----------------------------------------------3-4-4-4-4-4-4-4-4-4-4-6-7-0-0-0-0-0-0-0-0-0-0-0-0-|
D|-0-0-0-0-0-0-0-0-0-0-0-3-4-4-4-4-4-4-4-4-4-4-4---------------------------------------------------|

F|-------------------------------------------------------------------------------------------------|
C|-------------------------------------------------------------------------------------4-4-4-1-1-1-|
G|-----------------------3-4-4-4-4-4-4-4-4-4-4-4-4-0-0-0-0-0-0-0-0-0-0-0-0-2-2-2-2-2-2-------------|
D|-4-4-4-4-4-4-4-4-4-4-4---------------------------------------------------------------------------|

Bridge Variation
F|-------------------------------------------------------------------------------------------------|
C|-------------4-4-4-1-1-1-------1-1-1-4-4-4-1-1-1-------1-1-1-4-4-4-1-1-1-------1-1-1-4-4-4-1-1-1-|
G|-------------------------------------------------4-4-4-------------------0-0-0-------------------|
D|-0-0-0-0-0-0-------------4-4-4-------------------------------------------------------------------|

F|-------------------------------------------------------------------------------------------------|
C|-------------------------------------------------------------------------------------------------|
G|-----------------------3-4-4-4-4-4-4-4-4-4-4-4-4-0-0-0-0-0-0-0-0-0-0-0-0-2-2-2-2-2-2-2x----------|
D|-4-4-4-4-4-4-4-4-4-4-4---------------------------------------------------------------------------|

Main Riff x 2

End on:
F|-------------------------------------------------------------------------|
C|-------------------------------------------------------------------------|
G|-------------------------------------------------------------------------|
D|-0~~~~~--------------------------------------------------0~----/12~------|

| /  slide up
| \  slide down
| h  hammer-on
| p  pull-off
| ~  vibrato
| +  harmonic
| x  Mute note
===============================================================================

            
            
Suggest correction
Creating personal tab
Creating personal tab
You can edit any tab online and save it as your Personal.

You can edit, replace or remove any tab part or add personal notes – all changes will be seen only by you.

Personal tabs can be accessed anytime from any device, even offline.
Learn more »
Give kudos to tab author, rate the tab!
1 2 3 4 5
comments
print report bad tab
guest
You may want to rate the tab now too:
select rating
Wanna post a correction for this tab? Suggest correction