Oops, an error
Loading. Please wait.

Manimal bass

2,397 views 1 this week
2 commentsread comments
1 2 3 4 5
x 3
add to favorites
×
Save as Personal and add changes to this tab that will be seen only by you. Learn more ›
×
You can save this tab as Personal to edit and correct it or add notes. All changes will be seen only by you. Learn more »
launch autoscroll
font size
0
reset
guitar tuner
edit
Autoscroll
slow
fast
+/-
esc
set tempo
stop
Author
tabbede by dane lisieski

germs
manimal
MIA

INTRO
G(--------------------)
D(----------0---------)
A(-00002---3-32-------)
E(-----3-0-0----------)

VERSE
(-----------------------------------------------------)
(-----------------------------------------------------)
(-00000000---------0000000----------0000000-----------)
(---------33333333---------33333333---------33333333--)

VERSE 2
(-------------------)
(-------------------)
(--74-754--52-532---)
(-5--5---53--3------)

CHOURS
(----------------------/-----------------------)
(----------------------/------7----------------)
(------7---------------/-----------------------)
(-5555----132323-------/-5555---1323232323-----)

Great song, one of my favorits
there it is, have fun
any problems contact me at dbom90@aol.com

            
            
Suggest correction
Creating personal tab
Creating personal tab
You can edit any tab online and save it as your Personal.

You can edit, replace or remove any tab part or add personal notes – all changes will be seen only by you.

Personal tabs can be accessed anytime from any device, even offline.
Learn more »
Give kudos to tab author, rate the tab!
1 2 3 4 5
comments
print report bad tab
2 comments total.
0 reply
darbycrashed 264 Jul 12, 2015 08:29 AM

Perfect, except Verse 2 has an G note at the end of the verse. Like this:
VERSE 2
G|-------------------|
D|-------------------|
A|--74-754--52-532---|
E|-5--5---53--3---3--|

0 reply
Mechayoshi 249 Nov 07, 2015 05:42 AM

Good but chorus seems weird.

guest
You may want to rate the tab now too:
select rating
Wanna post a correction for this tab? Suggest correction