Oops, an error
Loading. Please wait.

If The Suspense Doesnt Kill Us Something Else Will tab

version 2
version 2

Whole song

1,860 views 1 this week
1 commentread comment
1 2 3 4 5
x 3
add to favorites
×
Save as Personal and add changes to this tab that will be seen only by you. Learn more ›
×
You can save this tab as Personal to edit and correct it or add notes. All changes will be seen only by you. Learn more »
launch autoscroll
font size
0
reset
how to read this tab
guitar tuner
edit
Autoscroll
slow
fast
+/-
esc
set tempo
stop
IF THE SUSPENSE DOESN'T KILL US, SOMETHING ELSE WILL 
                  - The Getaway Plan

Tabbed by: El Doof
Email: lets_set_the_stage_on_fire@hotmail.com

Tuning: Drop C (C, G, c, F, A, D)

Guitar 1: Clint Splattering
Guitar 2: Benny Chong
Guitar 3: Benny Chong


INTRO 1

Guitar 1

x1 (Distortion)
D||--------------------------|--------------------------|
A||--------------------------|--------------------------|
F||--------------------------|--------------------------|
c||--10-10-10-10-10-10-------|--10-10-10-10-10-10-------|
G||--------------------8-10--|--------------------8-10--|
C||--------------------------|--------------------------|

D|-------------------|---------------|
A|-------------------|---------------|
F|-------------------|---------------|
c|--6-6-6-6-6-6------|--8-8-8-8-8----|
G|--------------6-8--|---------------|
C|-------------------|---------------|


INTRO 2

Guitar 1

x1 (Distortion)
D||--------------------|---------------------------|
A||--------------------|---------------------------|
F||--5-5-5-5-5-5-8-10--|--12-12-10-10-8-8-7-7-8-8--|
c||--x-x-x-x-x-x-x-x---|--x--x--x--x--x-x-x-x-x-x--|
G||--3-3-3-3-3-3-6-8---|--10-10-8--8--6-6-5-5-6-6--|
C||--------------------|---------------------------|

D|---------------------|------------------------|
A|---------------------|------------------------|
F|--8-8-8-8-8-8-10-12--|--13-13--12-13-15-12----|
c|--x-x-x-x-x-x--x--x--|--x--x---x---x--x--x----|
G|--6-6-6-6-6-6--8-10--|--11-11--10-11-13-10----|
C|---------------------|------------------------|

D|--------------------|---------------------------|
A|--------------------|---------------------------|
F|--5-5-5-5-5-5-8-10--|--12-12-10-10-8-8-7-7-8-8--|
c|--x-x-x-x-x-x-x-x---|--x--x--x--x--x-x-x-x-x-x--|
G|--3-3-3-3-3-3-6-8---|--10-10-8--8--6-6-5-5-6-6--|
C|--------------------|---------------------------|

D|---------------|--------------------|
A|---------------|--------------------|
F|--13~----------|--10-10-10-10-10----|
c|--x------------|--x--x--x--x--x-----|
G|--11~----------|--8--8--8--8--8-----|
C|---------------|--------------------|

Guitar 2

x1 (Distortion)
D|---------------------------|---------------------------|
A|---------------------------|---------------------------|
F|--12-12-12-12-12-12-12-12--|--12-12-12-12-12-12-12-12--|
c|--10-10-10-10-10-10-10-10--|--10-10-10-10-10-10-10-10--|
G|--10-10-10-10-10-10-10-10--|--10-10-10-10-10-10-10-10--|
C|--10-10-10-10-10-10-10-10--|--10-10-10-10-10-10-10-10--|

D|-------------------|---------------------------|
A|-------------------|---------------------------|
F|--8-8-8-8-8-8-8-8--|--10-10-10-10-10-10-10-10--|
c|--6-6-6-6-6-6-6-6--|--8--8--8--8--8--8--8--8---|
G|--6-6-6-6-6-6-6-6--|--8--8--8--8--8--8--8--8---|
C|--6-6-6-6-6-6-6-6--|--8--8--8--8--8--8--8--8---|

D|---------------------------|---------------------------|
A|---------------------------|---------------------------|
F|--12-12-12-12-12-12-12-12--|--12-12-12-12-12-12-12-12--|
c|--10-10-10-10-10-10-10-10--|--10-10-10-10-10-10-10-10--|
G|--10-10-10-10-10-10-10-10--|--10-10-10-10-10-10-10-10--|
C|--10-10-10-10-10-10-10-10--|--10-10-10-10-10-10-10-10--|

D|--------------|--------------------|
A|--------------|--------------------|
F|--8~----------|--10-10-10-10-10----|
c|--6~----------|--8--8--8--8--8-----|
G|--6~----------|--8--8--8--8--8-----|
C|--6~----------|--8--8--8--8--8-----|


CHORUS 

Guitar 1

x3 (Distortion)
D|---------------------------|---------------------------|
A|---------------------------|---------------------------|
F|--12-12-12-12-12-12-12-12--|--12-12-12-12-12-12-12-12--|
c|--x--x--x--x--x--x--x--x---|--x--x--x--x--x--x--x--x---|
G|--10-10-10-10-10-10-10-10--|--10-10-10-10-10-10-10-10--|
C|---------------------------|---------------------------|

D|---------------------------|------------------------|
A|---------------------------|------------------------|
F|--13-13-13-13-13-13-13-13--|--15-15-15-15-15-x-x-x--|
c|--x--x--x--x--x--x--x--x---|--x--x--x--x--x--x-x-x--|
G|--11-11-11-11-11-11-11-11--|--13-13-13-13-13-x-x-x--|
C|---------------------------|------------------------|

D|---------------------------|---------------------------|
A|---------------------------|---------------------------|
F|--12-12-12-12-12-12-12-12--|--12-12-12-12-12-12-12-12--|
c|--x--x--x--x--x--x--x--x---|--x--x--x--x--x--x--x--x---|
G|--10-10-10-10-10-10-10-10--|--10-10-10-10-10-10-10-10--|
C|---------------------------|---------------------------|

D|---------------------------|---------------------------|
A|---------------------------|---------------------------|
F|--13-13-13-13-13-13-13-13--|--15-15-15-15-15-15-15-15--|
c|--x--x--x--x--x--x--x--x---|--x--x--x--x--x--x--x--x---|
G|--11-11-11-11-11-11-11-11--|--13-13-13-13-13-13-13-13--|
C|---------------------------|---------------------------|

D|---------------------------|---------------------------|
A|---------------------------|---------------------------|
F|--12-12-12-12-12-12-12-12--|--12-12-12-12-12-12-12-12--|
c|--x--x--x--x--x--x--x--x---|--x--x--x--x--x--x--x--x---|
G|--10-10-10-10-10-10-10-10--|--10-10-10-10-10-10-10-10--|
C|---------------------------|---------------------------|

D|---------------------------|------------------------|
A|---------------------------|------------------------|
F|--13-13-13-13-13-13-13-13--|--15-15-15-15-15-x-x-x--|
c|--x--x--x--x--x--x--x--x---|--x--x--x--x--x--x-x-x--|
G|--11-11-11-11-11-11-11-11--|--13-13-13-13-13-x-x-x--|
C|---------------------------|------------------------|

D|---------------------------|---------------------------|
A|---------------------------|---------------------------|
F|--12-12-12-12-12-12-12-12--|--12-12-12-12-12-12-12-12--|
c|--x--x--x--x--x--x--x--x---|--x--x--x--x--x--x--x--x---|
G|--10-10-10-10-10-10-10-10--|--10-10-10-10-10-10-10-10--|
C|---------------------------|---------------------------|

D|---------------|--------------------|
A|---------------|--------------------|
F|--13~----------|--10-10-10-10-10----|
c|--x------------|--x--x--x--x--x-----|
G|--11~----------|--8--8--8--8--8-----|
C|---------------|--------------------|


Guitar 2

x3 (Distortion)
D|---------------------------|---------------------------|
A|---------------------------|---------------------------|
F|--12-12-12-12-12-12-12-12--|--12-12-12-12-12-12-12-12--|
c|--10-10-10-10-10-10-10-10--|--10-10-10-10-10-10-10-10--|
G|--10-10-10-10-10-10-10-10--|--10-10-10-10-10-10-10-10--|
C|--10-10-10-10-10-10-10-10--|--10-10-10-10-10-10-10-10--|

D|-------------------|---------------------------|
A|-------------------|---------------------------|
F|--8-8-8-8-8-8-8-8--|--10-10-10-10-10-10-10-10--|
c|--6-6-6-6-6-6-6-6--|--8--8--8--8--8--8--8--8---|
G|--6-6-6-6-6-6-6-6--|--8--8--8--8--8--8--8--8---|
C|--6-6-6-6-6-6-6-6--|--8--8--8--8--8--8--8--8---|

D|---------------------------|---------------------------|
A|---------------------------|---------------------------|
F|--12-12-12-12-12-12-12-12--|--12-12-12-12-12-12-12-12--|
c|--10-10-10-10-10-10-10-10--|--10-10-10-10-10-10-10-10--|
G|--10-10-10-10-10-10-10-10--|--10-10-10-10-10-10-10-10--|
C|--10-10-10-10-10-10-10-10--|--10-10-10-10-10-10-10-10--|

x1
D|--------------|--------------------|
A|--------------|--------------------|
F|--8~----------|--10-10-10-10-10----|
c|--6~----------|--8--8--8--8--8-----|
G|--6~----------|--8--8--8--8--8-----|
C|--6~----------|--8--8--8--8--8-----|


You've never looked so picture perfect, 
But I'm an open book now.
Every white page will be turned to grey.
And every second spent was worth it,
We have the scars to show that,
What a way to end a perfect day.


POST-CHORUS PART 1

Guitar 1

x1 (Distortion)
D|-----------------|---------------------|
A|-----------------|---------------------|
F|-----------------|--------7h8p7~-------|
c|-----6--8~-------|-----8---------------|
G|--6--------------|--8------------------|
C|-----------------|---------------------|

D|-----------------|-----8--8--8--8--8---|
A|-----------------|-----11-11-11-11-11--|
F|-----------------|-----10-10-10-10-10--|
c|-----6--8~-------|---------------------|
G|--6--------------|---------------------|
C|-----------------|---------------------|

Guitar 2

x2 (Distortion)
D|-------------------|-------------------|
A|-------------------|-------------------|
F|--8-x-8-x-8-x-8-x--|--8-x-8-x-8-x-8-x--|
c|--6-x-6-x-6-x-6-x--|--6-x-6-x-6-x-6-x--|
G|--6-x-6-x-6-x-6-x--|--6-x-6-x-6-x-6-x--|
C|-------------------|-------------------|

D|-----------------------|-----------------------|
A|-----------------------|-----------------------|
F|--10-x-10-x-10-x-10-x--|--10-x-10-x-10-x-10-x--|
c|--8--x-8--x-8--x-8--x--|--8--x-8--x-8--x-8--x--|
G|--8--x-8--x-8--x-8--x--|--8--x-8--x-8--x-8--x--|
C|-----------------------|-----------------------|

D|-------------------|-------------------|
A|-------------------|-------------------|
F|--8-x-8-x-8-x-8-x--|--8-x-8-x-8-x-8-x--|
c|--6-x-6-x-6-x-6-x--|--6-x-6-x-6-x-6-x--|
G|--6-x-6-x-6-x-6-x--|--6-x-6-x-6-x-6-x--|
C|-------------------|-------------------|

D|-----------------------|---------------|
A|-----------------------|---------------|
F|--10-x-10-x-10-x-10-x--|---------------|
c|--8--x-8--x-8--x-8--x--|--8-8-8-8-8----|
G|--8--x-8--x-8--x-8--x--|--8-8-8-8-8----|
C|-----------------------|--8-8-8-8-8----|


You never seem to change,
You never seem to change,
You never seem to change...


BRIDGE

Guitar 1

x1 (Distortion)
D|--------------------------|--------------------------|
A|--------------------------|--------------------------|
F|--------------------------|--------------------------|
c|--10-10-10-10-10-10-------|--10-10-10-10-10-10-------|
G|--------------------8-10--|--------------------8-10--|
C|--------------------------|--------------------------|

Guitar 2

x1 (Distortion)
D|--------------------------|--------------------------|
A|--------------------------|--------------------------|
F|--------------------------|--------------------------|
c|--10-------------------8--|--10-------------------8--|
G|--10-10-10-10-10-10-10-8--|--10-10-10-10-10-10-10-8--|
C|--10-10-10-10-10-10-10-8--|--10-10-10-10-10-10-10-8--|
PM      .  .  .  .  .  .           .  .  .  .  .  .


VERSE PART 1

Guitar 1
D|---------------------------|---------------------------|
A|---------------------------|---------------------------|
F|---------------------------|---------------------------|
c|--10-10-10-10-10-10-10-10--|--10-10-10-10-10-10-10-10--|
G|---------------------------|---------------------------|
C|---------------------------|---------------------------|
PM   .  .  .  .  .  .  .  .      .  .  .  .  .  .  .  .

D|---------------------------|---------------------------|
A|---------------------------|---------------------------|
F|--8--8--8--8--8--8--8--8---|--7--7--7--7--7--7--7--7---|
c|--10-10-10-10-10-10-10-10--|--10-10-10-10-10-10-10-10--|
G|---------------------------|---------------------------|
C|---------------------------|---------------------------|
     .  .  .  .  .  .  .  .      .  .  .  .  .  .  .  .

D|---------------------------|---------------------------|
A|---------------------------|---------------------------|
F|---------------------------|---------------------------|
c|--10-10-10-10-10-10-10-10--|--10-10-10-10-10-10-10-10--|
G|---------------------------|---------------------------|
C|---------------------------|---------------------------|
PM   .  .  .  .  .  .  .  .      .  .  .  .  .  .  .  .

D|---------------------------|--------------------|
A|---------------------------|--------------------|
F|--8--8--8--8--8--8--8--8---|--7--7--7--7--10----|
c|--10-10-10-10-10-10-10-10--|--10-10-10-10-10----|
G|---------------------------|--------------8-----|
C|---------------------------|--------------------|
     .  .  .  .  .  .  .  .      .  .  .  . 

Guitar 2

(Distortion w/ Flanger)
D|-------------------|-------------------|
A|----------8--------|----------8--------|
F|----8-7-8---8-7-8--|----8-7-8---8-7-8--|
c|-------------------|-------------------|
G|-------------------|-------------------|
C|-------------------|-------------------|

D|--------------------|----------------|
A|-----------8--------|----------11----|
F|-----8-7-8---8-7-8--|----8-7-8-10----|
c|--10----------------|----------------|
G|--------------------|----------------|
C|--------------------|----------------|

And maybe one day you'll be happy,
We can remove those scars,
And fill each others hearts with bliss.


VERSE PART 2

Guitar 1

x3( Distortion w/ Delay)
D|---------------|---------------|
A|---------------|---------------|
F|-----------8~--|--8~-----------|
c|---------------|---------------|
G|---------------|---------------|
C|---------------|---------------|

x1
D|---------------|--------------------|
A|---------------|--------------------|
F|--13~----------|--10-10-10-10-10----|
c|--x------------|--x--x--x--x--x-----|
G|--11~----------|--8--8--8--8--8-----|
C|---------------|--------------------|

Guitar 2 (Distortion)
D|--------------------|--------------------------|
A|--------------------|--------------------------|
F|--12-12-12-12-12----|----12-12-12-12-12-12-12--|
c|--10-10-10-10-10----|----10-10-10-10-10-10-10--|
G|--10-10-10-10-10----|----10-10-10-10-10-10-10--|
C|--10-10-10-10-10----|----10-10-10-10-10-10-10--|

D|---------------|--------------------------|
A|---------------|--------------------------|
F|--8-8-8-8-8----|----10-10-10-10-10-10-10--|
c|--6-6-6-6-6----|----8--8--8--8--8--8--8---|
G|--6-6-6-6-6----|----8--8--8--8--8--8--8---|
C|--6-6-6-6-6----|----8--8--8--8--8--8--8---|

D|--------------------|--------------------------|
A|--------------------|--------------------------|
F|--12-12-12-12-12----|----12-12-12-12-12-12-12--|
c|--10-10-10-10-10----|----10-10-10-10-10-10-10--|
G|--10-10-10-10-10----|----10-10-10-10-10-10-10--|
C|--10-10-10-10-10----|----10-10-10-10-10-10-10--|

D|--------------|--------------------|
A|--------------|--------------------|
F|--8~----------|--10-10-10-10-10----|
c|--6~----------|--8--8--8--8--8-----|
G|--6~----------|--8--8--8--8--8-----|
C|--6~----------|--8--8--8--8--8-----|

Or you'll die alone! With a gun in hand! 
A rifle to your head! And I'll find you there!
(I can't come down, too far gone to be found...)


CHORUS


POST-CHORUS PART 1 x2


POST CHORUS PART 2

Guitar 1 

x1 (Distortion)
D|-------------|-------------|
A|-------------|-------------|
F|--8~---------|--10~--------|
c|--6~---------|--8~---------|
G|--6~---------|--8~---------|
C|--6~---------|--8~---------|

D|-------------|-----------------------|
A|-------------|-----------------------|
F|--8~---------|--10~--10-10-10-10-10--|
c|--6~---------|--8~---8--8--8--8--8---|
G|--6~---------|--8~---8--8--8--8--8---|
C|--6~---------|--8~---8--8--8--8--8---|


Guitar 2
x1 (Clean)       (Distortion)
D|--------------|--8--8--8--8--8-----|
A|----11-\6~----|--11-11-11-11-11----|
F|--------------|--10-10-10-10-10----|
c|--------------|--------------------|
G|--------------|--------------------|
C|--------------|--------------------|


INTERLUDE

Guitar 2

x3 (Clean)
D|--------------------------|--------------------------|
A|--------------------------|--------------------------|
F|--------------------------|--------------------------|
c|--------------------------|--------------------------|
G|--------------------------|--------------------------|
C|--10-10-10-10-10-10-10-8--|--10-10-10-10-10-10-10-8--|

D|--------------------|---------------------|
A|--------------------|---------------------|
F|--------------------|---------------------|
c|--------------------|---------------------|
G|--------------------|---------------------|
C|---6-6-6-6-6-6-6-3--|--8-8-8-8-8-8-8-8-6--|

x1 (Last chord is distorted)
D|--------------------------|--------------------------|
A|--------------------------|--------------------------|
F|--------------------------|--------------------------|
c|--------------------------|--------------------------|
G|--------------------------|--------------------------|
C|--10-10-10-10-10-10-10-8--|--10-10-10-10-10-10-10-8--|

D|--------------------|------------------------|
A|--------------------|------------------------|
F|--------------------|------------------10----|
c|--------------------|------------------8-----|
G|--------------------|------------------8-----|
C|---6-6-6-6-6-6-6-3--|--8-8-8-8-8-8-8-8-8-----|

Guitar 1

x6 (Clean)
D|------------------|-------------------------|
A|------------------|-----------11------------|
F|------------------|-------------------------|
c|--13-12-13-13~----|--13-12-13----13-12-13~--|
G|------------------|-------------------------|
C|------------------|-------------------------|

Guitar 3 

x4 (Distortion)
D|---------------------------|---------------------------|
A|--11-11-11-11-11-11-11-11--|--11-11-11-11-11-11-11-11--|
F|--8--8--8--8--8--8--8--8---|--8--8--8--8--8--8--8--8---|
c|---------------------------|---------------------------|
G|---------------------------|---------------------------|
C|---------------------------|---------------------------|
PM     .     .     .  .            .     .     .  .

Let me know when you're awake, 
So I can lift your damaged grace,
I'll be there to hold on to,
Pretend your arms are wings...


CHORUS x1


POST CHORUS PART 1 x1


OUTRO 

Guitar 1

x2 (Distortion)
D|-------------------------|--------------------------|
A|-------------------------|--------------------------|
F|-------------------------|--------------------------|
c|--10-10-10-10-10-10------|--10-10-10-10-10-10-------|
G|--------------------8-10-|--------------------8-10--|
C|-------------------------|--------------------------|

x1 (Clean)
D|-------------------------||
A|-------------------------||
F|--~----------------------||
c|-------------------------||
G|-------------------------||
C|--15~--------------------||

Guitar 2
x1 (Distortion)
D|--------------------------|--------------------------||
A|--------------------------|--------------------------||
F|--------------------------|--------------------------||
c|--10-------------------8--|--10-------------------8--||
G|--10-10-10-10-10-10-10-8--|--10-10-10-10-10-10-10-8--||
C|--10-10-10-10-10-10-10-8--|--10-10-10-10-10-10-10-8--||
PM      .  .  .  .  .  .           .  .  .  .  .  .



| /  slide up
| \  slide down
| h  hammer-on
| p  pull-off
| ~  let ring
| v  vibrato
| +  harmonic
| x  Mute note
| PM Palm-mute note

            
            
Suggest correction
Creating personal tab
Creating personal tab
You can edit any tab online and save it as your Personal.

You can edit, replace or remove any tab part or add personal notes – all changes will be seen only by you.

Personal tabs can be accessed anytime from any device, even offline.
Learn more »
Give kudos to tab author, rate the tab!
1 2 3 4 5
comments
print report bad tab
1 comment total.
+1 reply
dannydisaster69 20 Jan 02, 2009 02:30 AM

hey man otherwise nearly perfect tab just one suggestion for the intro

D||--------------------------|--------------------------|
A||--------------------------|--------------------------|
F||--------------------------|--------------------------|
c||--10-10-10-10-10-10---8---|--10-10-10-10-10-10---8/--|
G||--------------------8-----|--------------------8-----|
C||--------------------------|--------------------------|

D|-------------------|---------------|
A|-------------------|---------------|
F|-------------------|---------------|
c|-/6-6-6-6-6-6---6--|--8-8-8-8-8----|
G|--------------6----|---------------|
C|-------------------|---------------|

guest
You may want to rate the tab now too:
select rating
Wanna post a correction for this tab? Suggest correction