Oops, an error
Loading. Please wait.

Red Flag tab

version 1
version 1

Whole song

Interactive

1,688 views 1 this week
no commentswrite comment
1 2 3 4 5
3 more votes to show rating
add to favorites
×
Save as Personal and add changes to this tab that will be seen only by you. Learn more ›
×
You can save this tab as Personal to edit and correct it or add notes. All changes will be seen only by you. Learn more »
launch autoscroll
font size
0
reset
how to read this tab
guitar tuner
edit
Autoscroll
slow
fast
+/-
esc
set tempo
stop
-------------------------------------------------------------------------------
			     Red Flag - The Getaway Plan
-------------------------------------------------------------------------------


Tabbed by: Julez_v

Tuning: Guitar 1 - Drop C (C G C F A D)
	Guitar 2 - Drop C (C G C F A D)
	Guitar 3 - Drop C (C G C F A D)


Intro (0.27)

Guitar 1
             
|-------------5----------------5-----|
|-------6--5-----6-------6--5-----6--|
|--7---------------------------------|
|------------------------------------|
|------------------------------------|
|------------------------------------|

Guitar 2   
|--------------------------------|
|--------------------------------|
|--------------------------------|
|--0----0----0----0----0----0----|
|--0----0----0----0----0----0----|
|--0----0----0----0----0----0----|

     
|-----------5--------------5-----|-------------5----------------5------|
|-----6--5-----6-----6--5-----6--|-------6--5-----6-------6--5-----6---|
|--------------------------------|-------------------------------------|
|--------------------------------|-------------------------------------|
|--------------------------------|-------------------------------------|
|--------------------------------|-------------------------------------|
|
|--------------------------------|-------------------------------------|
|--------------------------------|-------------------------------------|
|--------------------------------|-------------------------------------|
|--8----8----8----8----8----8----|--10----10----10----10----10----10---|
|--8----8----8----8----8----8----|--10----10----10----10----10----10---|
|--8----8----8----8----8----8----|--10----10----10----10----10----10---|


 
|---------5----------------5-----|------------5--------------5-----|
|---6--5-----6-------6--5-----5--|--6---6--5-----6-----6--5-----6--|
|--------------------------------|---------------------------------|
|--------------------------------|---------------------------------|
|--------------------------------|---------------------------------|
|--------------------------------|---------------------------------|
|
|--------------------------------|---------------------------------|
|--------------------------------|---------------------------------|
|--------------------------------|---------------------------------|
|--7----7----7----7----7----7----|---8----8----8----8----8----8----|
|--7----7----7----7----7----7----|---8----8----8----8----8----8----|
|--7----7----7----7----7----7----|---8----8----8----8----8----8----|


   
|-------------5----------------5-----|-------------5----------------5-------|
|-------6--5-----6-------6--5-----6--|-------6--5-----6-------6--5-----6----|
|------------------------------------|--------------------------------------|
|------------------------------------|--------------------------------------|
|------------------------------------|--------------------------------------|
|------------------------------------|--------------------------------------|
|
|------------------------------------|--------------------------------------|  
|------------------------------------|--------------------------------------|
|------------------------------------|--------------------------------7--5--|
|--10----10----10----10----10----10--|--0--0--0-----0-----0--0--0-----x--x--|
|--10----10----10----10----10----10--|--0--0--0-----0-----0--0--0-----5--3--|
|--10----10----10----10----10----10--|--0--0--0-----0-----0--0--0-----0--0--|



|-------------5----------------5-------|
|-------6--5-----6-------6--5-----6----|
|--------------------------------------|
|--------------------------------------|
|--------------------------------------|
|--------------------------------------|
|
|--------------------------------------|
|--------------------------------------|
|--7--7--7-----7-----7--7--7-----7--5--|
|--x--x--x-----x-----x--x--x-----x--x--|
|--5--5--5-----5-----5--5--5-----5--3--|
|--0--0--0-----0-----0--0--0-----0--0--|






Verse (0.47) 

Guitar 1 - x5 
|------------------------------------|
|------------------------------------|
|--7----10--9--7--5--10----9----5----|
|------------------------------------|
|------------------------------------|
|------------------------------------|
                            
 X2
|----------------------------------|
|------------------8---------------|
|--5----9----10---------9----10----|
|----------------------------------|
|----------------------------------|
|----------------------------------|


 x6
|------------------------------------|
|------------------------------------|
|--7----10--9--7--5--10----9----5----|
|------------------------------------|
|------------------------------------|
|------------------------------------|



|--------------------------------------|--------------------------------------------|
|--------------------------------------|--------------------------------------------|
|--7--7--7--7--7--7--7--7--7--7--7--7--|--10--10--10--12--12--12--------------------|
|--x--x--x--x--x--x--x--x--x--x--x--x--|---x---x---x---x---x---x--10----10----10----|
|--5--5--5--5--5--5--5--5--5--5--5--5--|---8---8---8--10--10--10--10----10----10----|
|--------------------------------------|--------------------------10----10----10----|


Guitar 2 - X3
|-----------------------------|-----------------------------|
|-----------------------------|-----------------------------|
|-----------------------------|-----------------------------|
|--12------------3------------|--8------------10------------|
|--12------------3------------|--8------------10------------|
|--12------------3------------|--8------------10------------|


|----------------------------|----------------------------|
|----------------------------|----------------------------|
|----------------------------|----------------------------|
|--8-------------------------|----------------------------|
|--8-------------------------|----------------------------|
|--8-------------------------|----------------------------|

 x3
|--------------------------------------|-------------------------------------------|
|--------------------------------------|-------------------------------------------|
|--------------------------------------|-------------------------------------------|
|--0--0--0--0--0--2--3--3--3--3--3--0--|--8--8--8--8--8--8--10--10--10--10--10--0--|
|--0--0--0--0--0--2--3--3--3--3--3--0--|--8--8--8--8--8--8--10--10--10--10--10--0--|
|--0--0--0--0--0--2--3--3--3--3--3--0--|--8--8--8--8--8--8--10--10--10--10--10--0--|


|------------------------------------|-------------------------------------|
|------------------------------------|-------------------------------------|
|--10----10---------10----10---------|--10----10---------------------------|
|---8-----8----------8-----8---------|---8-----8---------10----10----10----|
|---8-----8----------8-----8---------|---8-----8---------10----10----10----|
|---8-----8----------8-----8---------|---8-----8---------10----10----10----|



Chorus (1.27) 

Guitar 1  - x2

|---------13------12--13----------13------12--13-|---------13------12--13----------13------12--13-|
|-11--11------11----------11--11------11---------|-11--11------11----------13--13------13---------|
|------------------------------------------------|------------------------------------------------|
|------------------------------------------------|------------------------------------------------|
|------------------------------------------------|------------------------------------------------|
|------------------------------------------------|------------------------------------------------|

  
|-10--10--13--10--12--13--10--10--13--10--12--13-|-10--10--13--10--12--13----------13------12--13-|
|------------------------------------------------|-------------------------13--13------13---------|
|------------------------------------------------|------------------------------------------------|
|------------------------------------------------|------------------------------------------------|
|------------------------------------------------|------------------------------------------------|
|------------------------------------------------|------------------------------------------------|


Guitar 2 & Guitar 3 - x2
|--------------------------------------|--------------------------------------------|
|--------------------------------------|--------------------------------------------|
|--------------------------------------|--------------------------------------------|
|--8--8--8--8--8--8--8--8--8--8--8--8--|--8--8--8--8--8--8--10--10--10--10--10--10--|
|--8--8--8--8--8--8--8--8--8--8--8--8--|--8--8--8--8--8--8--10--10--10--10--10--10--|
|--8--8--8--8--8--8--8--8--8--8--8--8--|--8--8--8--8--8--8--10--10--10--10--10--10--|

  
|--------------------------------------|--------------------------------------|
|--------------------------------------|--------------------------------------|
|--------------------------------------|--------------------------------------|
|--0--0--0--0--0--0--0--0--0--0--0--0--|--0--0--0--0--0--0--0--0--0--0--0--0--|
|--0--0--0--0--0--0--0--0--0--0--0--0--|--0--0--0--0--0--0--0--0--0--0--0--0--|
|--0--0--0--0--0--0--0--0--0--0--0--0--|--0--0--0--0--0--0--0--0--0--0--0--0--|


Solo (1.49)


Guitar 1 & Guitar 2
|-----------------|
|-----------------|
|-----------------|
|--0--------------|
|--0--------------|
|--0--------------|
|
|-----------------|
|-----------------|
|-----------------|
|--0--------------|
|--0--------------|
|--0--------------|

Guitar 1 - Intro
Guitar 2 - Intro

Guitar 3
|-----------------------------------|-----------------------------------|
|--13~-----------------------13b----|--13~-------------15b--------------|
|-----------------------------------|-----------------------------------|
|-----------------------------------|-----------------------------------|
|-----------------------------------|-----------------------------------|
|-----------------------------------|-----------------------------------|
      
|---------------------------------------|---------------------------------------|
|---------------------------------------|---------------------13----15----17----|
|--14------------------------14/12------|--12b-----------------x-----x-----x----|
|---------------------------------------|---------------------10----12----14----|
|---------------------------------------|---------------------------------------|
|---------------------------------------|---------------------------------------|
 
|------------------------------------|-------------------15--------------|
|--17br--------------15--------------|--18-------------------------------|
|---x--------------------------------|-----------------------------------|
|--14--------------------------------|-----------------------------------|
|------------------------------------|-----------------------------------|
|------------------------------------|-----------------------------------|

           
|--17brb--------------17~-------------|--------------------------------|
|-------------------------------------|--------------------------------|
|-------------------------------------|--------------------------------|
|-------------------------------------|--------------------------------|
|-------------------------------------|--------------------------------|
|-------------------------------------|--------------------------------|


Verse (2.10)


Guitar 1 - w/ Delay Pedal 
x3
|----------------5-------------------------10------|----------------1---------------------3-----|
|---------6-----------------------10---------------|---------3---------------------5------------|
|--7---------------------10------------------------|--3---------------------5-------------------|
|--------------------------------------------------|--------------------------------------------|
|--------------------------------------------------|--------------------------------------------|
|--------------------------------------------------|--------------------------------------------|

 
|----------------1---------------------------------|--------------------------------------------|
|---------3----------------------------------------|--------------------------------------------|
|--3-----------------------------------------------|-----------------------9--------------------|
|--------------------------------------------------|--------------------------------------------|
|--------------------------------------------------|--------------------------------------------|
|--------------------------------------------------|--------------------------------------------|


|------------------------------------|
|------------------------------------| x5
|--7----10--9--7--5--10----9----5----|
|------------------------------------|
|------------------------------------|
|------------------------------------|


|--------------------------------------|----------------------------|
|--------------------------------------|----------------------------|
|--7--7--7--7--7--7--7--7--7--7--7--7--|--5-------------------------|
|--x--x--x--x--x--x--x--x--x--x--x--x--|--x-------------------------|
|--5--5--5--5--5--5--5--5--5--5--5--5--|--3-------------------------|
|--------------------------------------|----------------------------|


Guitar 2 
|-------------------|
|-------------------|
|--7----------------|
|--x----------------|
|--5----------------|
|--0----------------|


(2.30)
 
|--------------------------------------|-------------------------------------------|
|--------------------------------------|-------------------------------------------| x3
|--------------------------------------|-------------------------------------------|
|--0--0--0--0--0--2--3--3--3--3--3--0--|--8--8--8--8--8--8--10--10--10--10--10--0--|
|--0--0--0--0--0--2--3--3--3--3--3--0--|--8--8--8--8--8--8--10--10--10--10--10--0--|
|--0--0--0--0--0--2--3--3--3--3--3--0--|--8--8--8--8--8--8--10--10--10--10--10--0--|


|------------------------------------|--------------------|
|------------------------------------|--------------------|
|--10----10---------10----10---------|--------------------|
|---8-----8----------8-----8---------|--10----------------|
|---8-----8----------8-----8---------|--10----------------|
|---8-----8----------8-----8---------|--10----------------|




Chorus (2.51) 

Guitar 1  - x2

|---------13------12--13----------13------12--13-|---------13------12--13----------13------12--13-|
|-11--11------11----------11--11------11---------|-11--11------11----------13--13------13---------|
|------------------------------------------------|------------------------------------------------|
|------------------------------------------------|------------------------------------------------|
|------------------------------------------------|------------------------------------------------|
|------------------------------------------------|------------------------------------------------|

  
|-10--10--13--10--12--13--10--10--13--10--12--13-|-10--10--13--10--12--13----------13------12--13-|
|------------------------------------------------|-------------------------13--13------13---------|
|------------------------------------------------|------------------------------------------------|
|------------------------------------------------|------------------------------------------------|
|------------------------------------------------|------------------------------------------------|
|------------------------------------------------|------------------------------------------------|


Guitar 2 & Guitar 3 - x2
|--------------------------------------|--------------------------------------------|
|--------------------------------------|--------------------------------------------|
|--------------------------------------|--------------------------------------------|
|--8--8--8--8--8--8--8--8--8--8--8--8--|--8--8--8--8--8--8--10--10--10--10--10--10--|
|--8--8--8--8--8--8--8--8--8--8--8--8--|--8--8--8--8--8--8--10--10--10--10--10--10--|
|--8--8--8--8--8--8--8--8--8--8--8--8--|--8--8--8--8--8--8--10--10--10--10--10--10--|

  
|--------------------------------------|--------------------------------------|
|--------------------------------------|--------------------------------------|
|--------------------------------------|--------------------------------------|
|--0--0--0--0--0--0--0--0--0--0--0--0--|--0--0--0--0--0--0--0--0--0--0--0--0--|
|--0--0--0--0--0--0--0--0--0--0--0--0--|--0--0--0--0--0--0--0--0--0--0--0--0--|
|--0--0--0--0--0--0--0--0--0--0--0--0--|--0--0--0--0--0--0--0--0--0--0--0--0--|



Interlude (3.11)

Guitar 1 - w/ delay pedal

|--------------------------------------------------------------|
|--10--------13------------------10--------13------------------| x8
|----------------------12----------------------------12--------|
|--------------------------------------------------------------|
|--------------------------------------------------------------|
|--------------------------------------------------------------|
   
            
|----------------------------------------------------------|--------------------|
|--10--------------------------10--------------------------|--10/---------------|
|----------------------------------------------------------|--------------------|
|----------------------------------------------------------|---7/---------------|
|----------------------------------------------------------|--------------------|
|----------------------------------------------------------|--------------------|


Guitar 1 x2
|--------------------------------------------|--------------------------------------------|
|--------------------------------------------|--------------------------------------------|
|--------------------10--10--10--10--10--10--|--------------------10--10--10--10--10--10--|
|--0--0--0--0--0--0---x---x---x---x---x---x--|--0--0--0--0--0--0---x---x---x---x---x---x--|
|--0--0--0--0--0--0---8---8---8---8---8---8--|--0--0--0--0--0--0---8---8---8---8---8---8--|
|--0--0--0--0--0--0--------------------------|--0--0--0--0--0--0--------------------------|
|                                             
Guitar 2  x2                                 
|--------------------------------------------|--------------------------------------------|
|--------------------------------------------|--------------------------------------------|
|--------------------14--14--14--14--14--14--|--------------------12--12--12--12--12--12--|
|--0--0--0--0--0--0---x---x---x---x---x---x--|--0--0--0--0--0--0---x---x---x---x---x---x--|
|--0--0--0--0--0--0--12--12--12--12--12--12--|--0--0--0--0--0--0--10--10--10--10--10--10--|
|--0--0--0--0--0--0--------------------------|--0--0--0--0--0--0--------------------------|


|--------------------------------------------|--------------------------------------------|
|--------------------------------------------|--------------------------------------------|
|--------------------10--10--10--10--10--10--|--------------------9---9---9---9---9---9---|
|--0--0--0--0--0--0---x---x---x---x---x---x--|--0--0--0--0--0--0--x---x---x---x---x---x---|
|--0--0--0--0--0--0---8---8---8---8---8---8--|--0--0--0--0--0--0--7---7---7---7---7---7---|
|--0--0--0--0--0--0--------------------------|--0--0--0--0--0--0--------------------------|
|                                            
|--------------------------------------------|--------------------------------------------|
|--------------------------------------------|--------------------------------------------|
|--------------------10--10--10--10--10--10--|--------------------12--12--12--12--12--12--|
|--0--0--0--0--0--0---x---x---x---x---x---x--|--0--0--0--0--0--0---x---x---x---x---x---x--|
|--0--0--0--0--0--0---8---8---8---8---8---8--|--0--0--0--0--0--0--10--10--10--10--10--10--|
|--0--0--0--0--0--0--------------------------|--0--0--0--0--0--0--------------------------|


(3.57)

Guitar 1
|----------13------12--13----------12------10--12--|--------10-----10--8-----------------|
|--11--11------11----------10--10------10----------|--8--8------8------------------------|
|--------------------------------------------------|-------------------------------------|
|--------------------------------------------------|----------------------7----7----7----|
|--------------------------------------------------|----------------------7----7----7----|
|--------------------------------------------------|----------------------7----7----7----|

Guitar 2
|--------------------------------------------------|-------------------------------------|
|--------------------------------------------------|-------------------------------------|
|--------------------------------------------------|-------------------------------------|
|--8-----------------------10----------------------|--7-------------------7----7----7----|
|--8-----------------------10----------------------|--7-------------------7----7----7----|
|--8-----------------------10----------------------|--7-------------------7----7----7----|

Guitar 3  
|--------------------------------------------------|-------------------------------------|
|--------------------------------------------------|-------------------------------------|
|--------------------------------------------------|-------------------------------------|
|--8-----------------------10----------------------|--7-------------------7----7----7----|
|--8-----------------------10----------------------|--7-------------------7----7----7----|
|--8-----------------------10----------------------|--7-------------------7----7----7----|



Chorus (4.03) 

Guitar 1  x3 then play first line
|---------13------12--13----------13------12--13-|---------13------12--13----------13------12--13-|
|-11--11------11----------11--11------11---------|-11--11------11----------13--13------13---------|
|------------------------------------------------|------------------------------------------------|
|------------------------------------------------|------------------------------------------------|
|------------------------------------------------|------------------------------------------------|
|------------------------------------------------|------------------------------------------------|

  
|-10--10--13--10--12--13--10--10--13--10--12--13-|-10--10--13--10--12--13----------13------12--13-|
|------------------------------------------------|-------------------------13--13------13---------|
|------------------------------------------------|------------------------------------------------|
|------------------------------------------------|------------------------------------------------|
|------------------------------------------------|------------------------------------------------|
|------------------------------------------------|------------------------------------------------|



Guitar 2 and 3
|-------------------|---------------------------------|
|-------------------|---------------------------------|
|-------------------|---------------------------------|
|--8----------------|---------------10----10----10----|
|--8----------------|---------------10----10----10----|
|--8----------------|---------------10----10----10----|

|--------------------------------------|--------------------------------------|
|--------------------------------------|--------------------------------------|
|--------------------------------------|--------------------------------------|
|--0--0--0--0--------0--0--0--0--------|--0--0--0--0--------0--0--0--0--------|
|--0--0--0--0--8--8--0--0--0--0--8--8--|--0--0--0--0--8--8--0--0--0--0--8--8--|
|--0--0--0--0--0--0--0--0--0--0--0--0--|--0--0--0--0--0--0--0--0--0--0--0--0--|


|--------------------------------------|--------------------------------------------|
|--------------------------------------|--------------------------------------------|
|--------------------------------------|--------------------------------------------|
|--8-----8-----8-----8--8--8-----8-----|--8-----8--8--8--8--10--10--10--10--10--10--|
|--8-----8-----8-----8--8--8-----8-----|--8-----8--8--8--8--10--10--10--10--10--10--|
|--8-----8-----8-----8--8--8-----8-----|--8-----8--8--8--8--10--10--10--10--10--10--|

|--------------------------------------|--------------------------------------|
|--------------------------------------|--------------------------------------|
|--------------------------------------|--------------------------------------|
|--0--0--0--0--0--0--0--0--0--0--0--0--|--0--0--0--0--0--0--0--0--0--0--0--0--|
|--0--0--0--0--0--0--0--0--0--0--0--0--|--0--0--0--0--0--0--0--0--0--0--0--0--|
|--0--0--0--0--0--0--0--0--0--0--0--0--|--0--0--0--0--0--0--0--0--0--0--0--0--|

|--------------------------------------|--------------------------------------------|
|--------------------------------------|--------------------------------------------|
|--------------------------------------|--------------------------------------------|
|--8--8--8--8--8--8--8--8--8--8--8--8--|--8--8--8--8--8--8--10--10--10--10--10--10--|
|--8--8--8--8--8--8--8--8--8--8--8--8--|--8--8--8--8--8--8--10--10--10--10--10--10--|
|--8--8--8--8--8--8--8--8--8--8--8--8--|--8--8--8--8--8--8--10--10--10--10--10--10--|

|--------------------------------------|--------------------------------------|
|--------------------------------------|--------------------------------------|
|--------------------------------------|--------------------------------------|
|--0--0--0--0--0--0--0--0--0--0--0--0--|--0--0--0--0--0--0--0--0--0--0--0--0--|
|--0--0--0--0--0--0--0--0--0--0--0--0--|--0--0--0--0--0--0--0--0--0--0--0--0--|
|--0--0--0--0--0--0--0--0--0--0--0--0--|--0--0--0--0--0--0--0--0--0--0--0--0--|

|--------------------------------------|-------------------------------------------|
|--------------------------------------|-------------------------------------------|
|--------------------------------------|-------------------------------------------|
|--8--8--8--8--8--8--8--8--8--8--8--8--|--8--8--8--8--8--8--10--10--10------3------|
|--8--8--8--8--8--8--8--8--8--8--8--8--|--8--8--8--8--8--8--10--10--10------3------|
|--8--8--8--8--8--8--8--8--8--8--8--8--|--8--8--8--8--8--8--10--10--10------3------|


Outro (4.39)

 
|-10--10--13--10--12--13--10--10--13--10--12--13-|-10--10--13--10--12--13--10--10--13--10--12--13-|
|------------------------------------------------|------------------------------------------------|
|------------------------------------------------|------------------------------------------------|
|------------------------------------------------|------------------------------------------------|
|------------------------------------------------|------------------------------------------------|
|------------------------------------------------|------------------------------------------------|
|
|------------------------------------------------|------------------------------------------------|
|------------------------------------------------|------------------------------------------------|
|------------------------------------------------|------------------------------------------------|
|------------------------------------------------|------------------------------------------------|
|-12------12------12------12------12-----12---12-|-12------12------12------12------12-----12---12-|
|-12------12------12------12------12-----12---12-|-11------11------11------11------11-----11---11-|
|
|------------------------------------------------|------------------------------------------------|
|------------------------------------------------|------------------------------------------------|
|------------------------------------------------|------------------------------------------------|
|------------------------------------------------|------------------------------------------------|
|-12------12------12------12------12-----12---12-|-12------12------12------12------12-----12---12-|
|-12------12------12------12------12-----12---12-|-11------11------11------11------11-----11---11-|




|-10--10--13--10--12--13--10--10--13--10--12--13-|-10--10--13--10--12--13--10--10--13--10--12--13-|
|------------------------------------------------|------------------------------------------------|
|------------------------------------------------|------------------------------------------------|
|------------------------------------------------|------------------------------------------------|
|------------------------------------------------|------------------------------------------------|
|------------------------------------------------|------------------------------------------------|
|
|------------------------------------------------|------------------------------------------------|
|------------------------------------------------|------------------------------------------------|
|------------------------------------------------|------------------------------------------------|
|------------------------------------------------|------------------------------------------------|
|-10------10------10------10------10-----10---10-|-10------10------10------10------10-----10---10-|
|-10------10------10------10------10-----10---10-|--9-------9-------9-------9-------9------9----9-|
|
|------------------------------------------------|------------------------------------------------|
|------------------------------------------------|------------------------------------------------|
|------------------------------------------------|------------------------------------------------|
|------------------------------------------------|------------------------------------------------|
|-10------10------10------10------10-----10---10-|-10------10------10------10------10-----10---10-|
|-10------10------10------10------10-----10---10-|--9-------9-------9-------9-------9------9----9-|



                 \1/ Tremolo Bar   
                                  
|--12------------13------------||
|------------------------------||
|------------------------------||
|------------------------------||
|------------------------------||
|------------------------------||
|
|------------------------------||
|------------------------------||
|------------------------------||
|--8---------------------------||
|--8---------------------------||
|--8---------------------------||
|   
|------------------------------||
|------------------------------||
|------------------------------||
|--8---------------------------||
|--8---------------------------||
|--8---------------------------||



Duration Legend
---------------
W - whole
H - half
Q - quarter
E - 8th
S - 16th
T - 32nd
X - 64th
. - note dotted
|-n-|  - n-tuplets


Tablature Legend
----------------
L - tied note
x - dead note
g - grace note
(n) - ghost note
> - accentuded note
NH - natural harmonic
AH - artificial harmonic
TH - tapped harmonic
SH - semi harmonic
PH - pitch harmonic
h - hammer on
p - pull off
b - bend
br - bendRelease
pb - preBend
pbr - preBendRelease
brb - bendReleaseBend
\n/ - tremolo bar dip
\n - tremolo bar dive
-/n - tremolo bar Release up
/n\ - tremolo bar inverted dip
/n - tremolo bar return
-\n - tremolo bar Release down
S - shift slide
s - legato slide
/ -  slide into from below or out of upwards
\ -  slide into from above or out of downwards
~ - vibrato
W - wide vibrato
tr - trill
TP - tremolo picking
T - tapping
S - slap
P - pop
< - fade in
^ - brush up
v - brush down

            
            
Suggest correction
Creating personal tab
Creating personal tab
You can edit any tab online and save it as your Personal.

You can edit, replace or remove any tab part or add personal notes – all changes will be seen only by you.

Personal tabs can be accessed anytime from any device, even offline.
Learn more »
Give kudos to tab author, rate the tab!
1 2 3 4 5
comments
print report bad tab
guest
You may want to rate the tab now too:
select rating
Wanna post a correction for this tab? Suggest correction