Oops, an error
Loading. Please wait.

Where The City Meets The Sea tab

version 1
version 1

Whole song

Interactive

23,201 views 6 this week
6 commentsread comments
1 2 3 4 5
x 6
add to favorites
×
Save as Personal and add changes to this tab that will be seen only by you. Learn more ›
×
You can save this tab as Personal to edit and correct it or add notes. All changes will be seen only by you. Learn more »
launch autoscroll
font size
0
reset
how to read this tab
guitar tuner
edit
Autoscroll
slow
fast
+/-
esc
set tempo
stop
----------------------------------------------------------------------------
          WHERE THE CITY MEETS THE SEA - The Getaway Plan
----------------------------------------------------------------------------Tabbed by: El Doof
Email: lets_set_the_stage_on_fire@hotmail.com

Tuning: Drop C (C, G, c, F, A, D)

Guitar 1: Matthew Wright
Guitar 2: Clint Splattering
Guitar 3: Clint Splattering


INTRO

Guitar 1 

x2 (Light Distortion)
D||--------------------------------------|
A||--------------------------------------|
F||--------------------------------------|
c||--------------------------------------|
G||--2--(x8)--4--(x8)--6--(x8)--4--(x8)--|
C||--2--------4--------6--------4--------|
PM   .        .        .        .

D|------------------------------|
A|------------------------------|
F|------------------------------|
c|------------------------------|
G|--2--(x8)--4--(x8)--6--(x16)--|
C|--2--------4--------6---------|
PM  .        .        .

Guitar 2

x1 (Light Distortion w/ Slight Delay)
D|----------------------------------------|
A|----------------------------------------|
F|----------------------------------------|
c|--2----4----6----4----2----4----6----6--|
G|--2----4----6----4----2----4----6----6--|
C|--2----4----6----4----2----4----6----6--|

D|--x--------------|
A|--0--------------|
F|--1--------------|
c|--2--------------|
G|--2--(let ring)--|
C|--2--------------|


MAIN RIFF/CHORUS

Guitar 1 (Heavy Distortion)
D|--------------------------------------|
A|--------------------------------------|
F|--4--------6--------8--------6--------|
c|--2--------4--------6--------4--------|
G|--2--(x8)--4--(x8)--6--(x8)--4--(x8)--|
C|--2--------4--------6--------4--------|

D|------------------------------|
A|------------------------------|
F|--4--------6--------8---------|
c|--2--------4--------6---------|
G|--2--(x8)--4--(x8)--6--(x16)--|
C|--2--------4--------6---------|

Guitar 2 

Light Distortion

x3 
D|------------------------------|
A|------------------------------|
F|-----------11-11-11-13-13-13--|
c|--13-13-13--------------------|
G|------------------------------|
C|------------------------------|

D|----------------------------|
A|----------------------------|
F|----------------------------|
c|--13-13-13-11-11-11-9-9-9/--|
G|----------------------------|
C|----------------------------|


VERSE 1

Guitar 2

x2 (Clean)
D|---------------------------------16--(let ring)--|
A|--16--------------------------16-----------------|
F|-----16--------------------16--------------------|
c|--------18--(let ring)--18-----------------------|
G|-------------------------------------------------|
C|-------------------------------------------------|


PRE-CHORUS

Guitar 2 (let chords ring)

x1 (Clean)
D|--0----2----6--|
A|--4----2----x--|
F|--4----2----8--|
c|--2----4----6--|
G|--2----4----6--|
C|--2----4----6--|


CHORUS 

Guitar 1 (Distortion)
D|--------------------------------------|
A|--------------------------------------|
F|--4--------6--------8--------6--------|
c|--2--------4--------6--------4--------|
G|--2--(x8)--4--(x8)--6--(x8)--4--(x8)--|
C|--2--------4--------6--------4--------|

D|------------------------------|
A|------------------------------|
F|--4--------6--------8---------|
c|--2--------4--------6---------|
G|--2--(x8)--4--(x8)--6--(x16)--|
C|--2--------4--------6---------|

Guitar 2

x3
D|------------------------------|
A|------------------------------|
F|-----------11-11-11-13-13-13--|
c|--13-13-13--------------------|
G|------------------------------|
C|------------------------------|

x1
D|----------------------------|
A|----------------------------|
F|----------------------------|
c|--13-13-13-11-11-11-9-9-9\--|
G|----------------------------|
C|----------------------------|

x3
D|------------------------------|
A|------------------------------|
F|-----------11-11-11-13-13-13--|
c|--13-13-13--------------------|
G|------------------------------|
C|------------------------------|

x1
D|-------------------------------|
A|--/11-11-11--------------------|
F|------------13-13-13-11-11-11--|
c|-------------------------------|
G|-------------------------------|
C|-------------------------------|


VERSE 2

Guitar 2 

x2 Distortion w/ Delay
D|--12-12-12-12--12-11-11-11-11--11-12-12-12-12--12-14-14-14--|
A|--12-12-12-12--12-11-11-11-11--11-12-12-12-12--12-14-14-14--|
F|------------------------------------------------------------|
c|------------------------------------------------------------|
G|------------------------------------------------------------|
C|------------------------------------------------------------|
PM      .     .         .     .         .     .      .     .

D|--12-12-12-12--12-11-11-11-11--11-12-12-12-12--12-9--9--14-14--|
A|--12-12-12-12--12-11-11-11-11--11-12-12-12-12--12-11-11-14-14--|
F|---------------------------------------------------------------|
c|---------------------------------------------------------------|
G|---------------------------------------------------------------|
C|---------------------------------------------------------------|
PM     .      .         .     .         .     .        .      . 

Guitar 3

(Light Distortion w/ Delay)
D|------------------------------------------------|
A|--------19-17~--------19--19-17-16-17-16--------|
F|--16-18---------16-18--------------------18-16--|
c|------------------------------------------------|
G|------------------------------------------------|
C|------------------------------------------------|


BRIDGE

Guitar 1 (Heavy Distortion)
D|--------------------------------------|
A|--------------------------------------|
F|--4--------6--------8--------6--------|
c|--2--------4--------6--------4--------|
G|--2--(x8)--4--(x8)--6--(x8)--4--(x8)--|
C|--2--------4--------6--------4--------|

D|------------------------------|
A|------------------------------|
F|--4--------6--------8---------|
c|--2--------4--------6---------|
G|--2--(x8)--4--(x8)--6--(x16)--|
C|--2--------4--------6---------|

Guitar 2

x3 (Light Distortion)
D|------------------------------------------------|
A|--------19-17~--------19--19-17-16-17-16--------|
F|--16-18---------16-18--------------------18-16--|
c|------------------------------------------------|
G|------------------------------------------------|
C|------------------------------------------------|

x3 
D|------------------------------|
A|--11-11-11-12-12-12-14-14-14--|
F|------------------------------|
c|------------------------------|
G|------------------------------|
C|------------------------------|

x2
D|---------------------------------------------------|
A|--17-17-17-16-16-16-16-16-17-17-17-16-16-16-19-19--|
F|---------------------------------------------------|
c|---------------------------------------------------|
G|---------------------------------------------------|
C|---------------------------------------------------|

x3
D|--19-19-19-18-18-18-\14-14-14--|
A|-------------------------------|
F|-------------------------------|
c|-------------------------------|
G|-------------------------------|
C|-------------------------------|

x1
D|------------------------------|
A|--19-19-19-17-17-17-16-16-16--|
F|------------------------------|
c|------------------------------|
G|------------------------------|
C|------------------------------|


FINAL CHORUS

Guitar 1 
D|------------------------------|
A|------------------------------|
F|------------------------------|
c|------------------------------|
G|--2--(x8)--4--(x8)--6--(x16)--|
C|--2--------4--------6---------|
PM  .        .        .

D|--------------------14p11h14p11h14--|
A|--12--(let ring)--------------------|
F|------------------------------------|
c|------------------------------------|
G|------------------------------------|
C|------------------------------------|

D|--11-11-11-11-11-11-11--------------------------|
A|-----------------------12-12-12-12-12-12-12-12--|
F|------------------------------------------------|
c|------------------------------------------------|
G|------------------------------------------------|
C|------------------------------------------------|


OUTRO

Guitar 2
D|-----------------------------------|
A|--12~------------------------------|
F|-------15~---13~---11--------------|
c|----------------------11-13----8~--|
G|-----------------------------------|
C|-----------------------------------|

| /  slide up
| \  slide down
| h  hammer-on
| p  pull-off
| ~  vibrato
| +  harmonic
| x  Mute note
============================================================================

            
            
Suggest correction
Creating personal tab
Creating personal tab
You can edit any tab online and save it as your Personal.

You can edit, replace or remove any tab part or add personal notes – all changes will be seen only by you.

Personal tabs can be accessed anytime from any device, even offline.
Learn more »
comments
print report bad tab
6 comments total. Showing first comments.
0 reply
smithy96 10 Mar 16, 2008 12:14 AM

i looked at the video of them playing it up close in a concert and they played the same chords you put down in the tab
well done it all sounds good

0 reply
hayz_182 202 Mar 17, 2008 07:21 PM

not a bad effort. go check out my Drop D version should be spot on.

rate it too:)

0 reply
aussiedude777 71 Apr 20, 2008 11:20 PM

Great tab!
This is a great song to play on guitar and you covered all of it cheers.

guest
You may want to rate the tab now too:
select rating
Wanna post a correction for this tab? Suggest correction