Oops, an error
Loading. Please wait.

We Got The Beat bass

version 1
version 1

Whole song

Interactive

17,821 views 21 this week
4 commentsread comments
1 2 3 4 5
x 7
add to favorites
×
Save as Personal and add changes to this tab that will be seen only by you. Learn more ›
×
You can save this tab as Personal to edit and correct it or add notes. All changes will be seen only by you. Learn more »
launch autoscroll
font size
0
reset
guitar tuner
edit
Autoscroll
slow
fast
+/-
esc
set tempo
stop
Song: We Got the Beat
Artist: The Go-Gos   
Tabbed by: Gregg (yor123@bellsouth.net)

This is tuned to sharp of 440


    verse
                        (x4)                   (x10)                     (x2)

     e  e  e  e  e  e  e  e    e  e e q  e  e   e    q  q  q  q  q  q  q  q   
G |--------------------------|---------------------|------------------------|
D |-------------------------*|--------5--7--5-----*|-----------------------*|
A |-------------------------*|------7-----------7-*|-----------------------*|
E |--5--5--5--5--5--5--5--5--|-5--5----------------|-5--5--5--5--5--5--5--5-|

    chorus
                                                                    
|   h  e  e  e  e   h  e  e  e  e   q  e  e  e  e   h  e  e  e  e
G |---------------|---------------|---------------|-----------------|
D |---------------|-5--5--5--5--5-|-3--3--3--3--3-|-----------------|
A |-5--5--5--5--5-|---------------|---------------|-3--3--3--3--3---|
E |---------------|---------------|---------------|-----------------|


   Repeat verse
   Repeat Chorus

   Guitar Solo
                        (x2)                   (x4)
     e  e  e  e  e  e  e  e   e  e  e  e  e  e  e  e 
G |-------------------------|------------------------|
D |------------------------*|-- ----------5--5--7--7-|
A |------------------------*|-------7--7-------------|
E |--5--5--5--5--5--5--5--5-|-5--5-------------------|

                        (x4)
>
|    e  e  e  e  e  e  e  e 
G |-------------------------|
D |--------------7--7--9--9-|
A |--------9--9-------------|
E |--7--7-------------------|                                  

   Go back to second measure of verse and all of chorus
   End with second measure of verse

            
            
Suggest correction
Creating personal tab
Creating personal tab
You can edit any tab online and save it as your Personal.

You can edit, replace or remove any tab part or add personal notes – all changes will be seen only by you.

Personal tabs can be accessed anytime from any device, even offline.
Learn more »
comments
print report bad tab
4 comments total. Showing first comments.
0 reply
AcdcTXfan 288 Sep 29, 2007 10:12 AM

thanx, i'm making the real guitar tab, so this hepls

0 reply
AcdcTXfan 288 Sep 29, 2007 10:12 AM

helps

+1 reply
bassmaster226 31 Dec 09, 2007 03:03 PM

this is a real good bass tab.

guest
Wanna post a correction for this tab? Suggest correction