Oops, an error
Loading. Please wait.

History Song tab

version 3
version 3

Whole song

Interactive

13,889 views 3 this week
4 commentsread comments
1 2 3 4 5
x 15
add to favorites
×
Save as Personal and add changes to this tab that will be seen only by you. Learn more ›
×
You can save this tab as Personal to edit and correct it or add notes. All changes will be seen only by you. Learn more »
launch autoscroll
font size
0
reset
how to read this tab
guitar tuner
edit
Autoscroll
slow
fast
+/-
esc
set tempo
stop
Author
Difficulty
History Song - The Good, the Bad & the Queen

To get the sound its best to use a slide on your first finger, or just slide with your 
barred across all the strings..

E-------------------------------------------------------------|
B-------------------------------------------------------------|
G----5-----5--------2-----2-----1-----1-----------------------|
D-------7-----7--------3-----------2--------------------------|
A-------------------------------------------------------------|
E--5-------------1-----------0--------------------------------|


this is repeated for the whole song.

            
            
Suggest correction
Creating personal tab
Creating personal tab
You can edit any tab online and save it as your Personal.

You can edit, replace or remove any tab part or add personal notes – all changes will be seen only by you.

Personal tabs can be accessed anytime from any device, even offline.
Learn more »
comments
print report bad tab
4 comments total. Showing first comments.
+3 reply
zakattak_ 77 Sep 12, 2009 04:56 AM

oops this is wrong really. should go

E-------------------------------------------------------------|
B-------------------------------------------------------------|
G----5-----5----5---------------2---2---------1-------1-------|
D-------7----------7----5---------3--------------2------------|
A-------------------------------------------------------------|
E--5---------5---------------1-----------0--------------------|

im such a bellend

+1 reply
zakattak_ 77 Sep 12, 2009 04:56 AM

got lots of 5 stars anyway LOL

0 reply
KraftKlub 42 Jan 14, 2016 08:41 AM

one more ;)

guest
You may want to rate the tab now too:
select rating
Wanna post a correction for this tab? Suggest correction