Oops, an error
Loading. Please wait.

Three Changes tab

2,510 views 3 this week
2 commentsread comments
1 2 3 4 5
x 3
add to favorites
×
Save as Personal and add changes to this tab that will be seen only by you. Learn more ›
×
You can save this tab as Personal to edit and correct it or add notes. All changes will be seen only by you. Learn more »
launch autoscroll
font size
0
reset
how to read this tab
guitar tuner
edit
Autoscroll
slow
fast
+/-
esc
set tempo
stop
Difficulty
Three Changes Tab
By British In Mind
E: ------------------------|
B: ------------------------|
G: --------0--------0------|
D: ------0--------1---1----|
A: ----1-------3-----------|
E: --3---------------------| repeat that three times, then:

E: -------------------------|
B: -------------------------|
G: --------2---------0------|
D: --0--3----3----1---1-----|
A: --------------3----------|
E: -------------------------|

            
            
Suggest correction
Creating personal tab
Creating personal tab
You can edit any tab online and save it as your Personal.

You can edit, replace or remove any tab part or add personal notes – all changes will be seen only by you.

Personal tabs can be accessed anytime from any device, even offline.
Learn more »
Give kudos to tab author, rate the tab!
1 2 3 4 5
comments
print report bad tab
2 comments total.
0 reply
boredness 36 Sep 02, 2007 06:04 PM

The Tabs are completely correct, not many correct Tabs out there! Kudos

+1 reply
dkgs 56 Sep 14, 2014 09:49 AM

The whole intro melody
E: -------------------------------------------------------------|
B: -------------------------------------------------------------|
G: -------------------------------------------------------------|
D: -----------------------------------------------------------3-| x2
A: -------3-5-6-5-3---------6-------3-------6-----------3-5-6---|
E: -3-5-6-----------6-5-3-6---6-1-5---5-3-6---6-1-3-5-6---------|

guest
Wanna post a correction for this tab? Suggest correction