Oops, an error
Loading. Please wait.

Shake It Off chords

463 views 6 this week
no commentswrite comment
1 2 3 4 5
x 3
add to favorites
×
Save as Personal and add changes to this tab that will be seen only by you. Learn more ›
×
You can save this tab as Personal to edit and correct it or add notes. All changes will be seen only by you. Learn more »
launch autoscroll
font size
0
reset
transpose
0
reset
display chords
guitar tuner
edit
Autoscroll
slow
fast
+/-
esc
set tempo
stop
Strumming
There is no strumming pattern for this song yet. and get +5 IQ
[Intro]

C Am C Am

    C                                           Am
E||---------------------------------------------------------------------------------------|
B||---------------------------------------------------------------------------------------|
G||---0-----0----0-----0----0-----0----0-----0----2-----2----2-----2----2-----2----2------|
D||-----0h2--------0h2--------0h2--------0h2--------0h2--------0h2--------0h2--------0----|
A||-3----------3----------3----------3----------0----------0----------0----------0--------|
E||---------------------------------------------------------------------------------------|

    C                                           Am
E||---------------------------------------------------------------------------------------|
B||---------------------------------------------------------------------------------------|
G||---0-----0----0-----0----0-----0----0-----0----2-----2----2-----2----2-----2----2-0----|
D||-----0h2--------0h2--------0h2--------0h2--------0h2--------0h2--------0h2-------------|
A||-3----------3----------3----------3----------0----------0----------0----------0--------|
E||---------------------------------------------------------------------------------------|


[Verse 1]

C                            Am
Come out wherever you’ve been hiding
C                    Am
Step into the glorious light
C                            Am
Brother there’s no reason for fighting
C                           Am
Put your hands down and say good night
          G
Cause God knows – you’ve been waiting

C Am C Am


[Verse 2]

C                         Am
The city lights are gonna blind you
C                       Am
Make you forget who you are
C                     Am
Oh that past is gonna haunt you
C                     Am
Grace shows us who we, really are
        G
And God knows – we’ve been waiting

C Am C Am


[Verse 3]

C                      Am
Sing out sing out your song now 
C                      Am
Sing it for the whole world to hear (oh, oh, oh)
C                     Am
Stand up, stand up be counted 
C                     Am
Sing it out to let ‘em know, He’s still near
          G
Cause God knows - we’ve been waiting


[Chorus]

            F             G
So shake it off, Shake it off
          C
All those worries and those cares
            F             G
So shake it off, Shake it off
          C
And tell ‘em they’re not welcome here
            Am       G                  C                   
Oh let your heart be light and lay your burdens down
         G
And sing out
                                C
Cause we’re not waiting anymore
            F             G
So shake it off, Shake it off
          C
All those worries, all those cares
            F             G
So shake it off, Shake it off
          C
And tell ‘em they’re not welcome here
            Am       G                  C                   
Oh let your heart be light and lay your burdens down
         G
And sing out
                                
Cause we’re not waiting anymore


[Outro]

C Am C Am C


            
            
Suggest correction
Creating personal tab
Creating personal tab
You can edit any tab online and save it as your Personal.

You can edit, replace or remove any tab part or add personal notes – all changes will be seen only by you.

Personal tabs can be accessed anytime from any device, even offline.
Learn more »
Give kudos to tab author, rate the tab!
1 2 3 4 5
comments
print report bad tab
guest
You may want to rate the tab now too:
select rating
Wanna post a correction for this tab? Suggest correction