Oops, an error
Loading. Please wait.

This Abyss tab

853 views 1 this week
no commentswrite comment
1 2 3 4 5
2 more votes to show rating
add to favorites
×
Save as Personal and add changes to this tab that will be seen only by you. Learn more ›
×
You can save this tab as Personal to edit and correct it or add notes. All changes will be seen only by you. Learn more »
launch autoscroll
font size
0
reset
how to read this tab
guitar tuner
edit
Autoscroll
slow
fast
+/-
esc
set tempo
stop
Author
-------------------------------------------------------------------------------
                             THIS ABYSS - The Gothic Archies
-------------------------------------------------------------------------------
Tabbed by: Zoracksbro
Email:Zoracksbro@yahoo.com
thanks for reading this i hope it helps the few people who know this song


Tuning:EADGBE

intro and verse
       G                                          D
e|---------------------------------------------|------------------------------|
B|---------------------------------------------|-----3-----3-----3-----3------|
G|----------0---------0----------0----------0--|------------------------------|
D|---------------------------------------------|--0-----0-----0-----0---------|
A|---------------------------------------------|------------------------------|
E|-----3---------3----------3-----------3------|------------------------------|
      C                           D
e|-----------------------------|----------------------------------------------|
B|--------1-----1-----1-----1--|--3-----3-----3----3--------------------------|
G|-----------------------------|----------------------------------------------|
D|-----------------------------|----------------------------------------------|
A|----3------3-----3-----3-----|-----0-----0-----0----------------------------|
E|-----------------------------|----------------------------------------------|


The chorus is alternating C and D every other measure...if you dont know what that
tap your foot to the beat of the song. Youll notice that the chords change every 4 foot taps.
foot tap is a beat and their are 4 beats in a measure in this song. So for the verses, 
you tap your foot, you play the bottom note when you hit your foot on the ground and
top note when your foot is at it's peak. The rhythm of the chorus is up to interpretation.

Chorus C D C D


Lyrics

Verse
This abyss, this lightless void
This abyss of world destroyed
This abyss, all deep, all wide
This abyss of Being denied

Chorus
Even in the darkest forest
Fireflies are flickering
But not in...

Verse
This abyss of black increased
This abyss without surcease

Chorus
Even in the deepest ocean
Is a little moonlight
but not in...

Verse
This abyss of night unbound
This abyss without a sound

Chorus
Even in your bedroom shadow
There is something moving
but not in...

Verse
this abyss, this all-below
this abyss, this death, this "no"

it ends very suddenly and when the singer sings no play this


e|----2-----3-----2-----3----------------------------------------------------------|
B|---------------------------------------------------------------------------------|
G|---------------------------------------------------------------------------------|
D|--0----0-----0-----0-------------------------------------------------------------|
A|---------------------------------------------------------------------------------|
E|---------------------------------------------------------------------------------|

its a fade out ending

            
            
Suggest correction
Creating personal tab
Creating personal tab
You can edit any tab online and save it as your Personal.

You can edit, replace or remove any tab part or add personal notes – all changes will be seen only by you.

Personal tabs can be accessed anytime from any device, even offline.
Learn more »
Give kudos to tab author, rate the tab!
1 2 3 4 5
comments
print report bad tab
guest
You may want to rate the tab now too:
select rating
Wanna post a correction for this tab? Suggest correction