Oops, an error
Loading. Please wait.

Beach Rats bass

10,420 views 51 this week
2 commentsread comments
1 2 3 4 5
x 16
add to favorites
×
Save as Personal and add changes to this tab that will be seen only by you. Learn more ›
×
You can save this tab as Personal to edit and correct it or add notes. All changes will be seen only by you. Learn more »
launch autoscroll
font size
0
reset
guitar tuner
edit
Autoscroll
slow
fast
+/-
esc
set tempo
stop
Author
Difficulty
Unregistered
Artist: The Growlers
Song: Beach Rats
Standard Tuning

[Verse]
G|---------------------------|
D|-----------4---88868-6--8--|
A|--6--6--4h6-6--------------|
E|---------------------------|

[Chorus]
G|--------------------------------|
D|--6--6-6h866--0h4-4-4---------4-|
A|----------------------6-4--4h6--|
E|--------------------------------|

[Instrumental]
(May differ slightly each time played)
G|-------------------------------|
D|----------------8-88-8-6-66-6--|
A|--6-66-6-6-66-6----------------|
E|-------------------------------|

            
            
Suggest correction
Creating personal tab
Creating personal tab
You can edit any tab online and save it as your Personal.

You can edit, replace or remove any tab part or add personal notes – all changes will be seen only by you.

Personal tabs can be accessed anytime from any device, even offline.
Learn more »
comments
print report bad tab
2 comments total.
+1 reply
mickey.mason 10 Jun 13, 2013 06:50 PM

This is great man! I sussed the first part but the chorus was so hard to catch on to, keep it up man! Would love to know more growlers bass lines if you have them :)

0 reply
grooving 101 May 07, 2016 10:16 PM

Sounds pretty good. I might be wrong, but this sounds more suitable for the verse:

Verse
G|--------------------------------|
D|------------------88868-6-8-----|
A|--6--6--6-9--6------------------|
E|-------9-------------------------|
Alternating to something like this further into the song (after the first chorus):
Verse
G|--------------------------------|
D|-----------------8886---8-6-----|
A|--6--6--6-9--6--------9-----9-8-|
E|-------9------------------------|

guest
Wanna post a correction for this tab? Suggest correction