Oops, an error
Loading. Please wait.

Going Gets Tuff tab

4,729 views 72 this week
no commentswrite comment
1 2 3 4 5
x 6
add to favorites
×
Save as Personal and add changes to this tab that will be seen only by you. Learn more ›
×
You can save this tab as Personal to edit and correct it or add notes. All changes will be seen only by you. Learn more »
launch autoscroll
font size
0
reset
how to read this tab
guitar tuner
edit
Autoscroll
slow
fast
+/-
esc
set tempo
stop
Author
Difficulty
-------------------------------------------------------------------------------
             Going Gets Tuff - The Growlers - Chinese Fountain
-------------------------------------------------------------------------------
Tabbed by: AJ Christensen

Tuning: Standard

         This is my first tab ever so I hope you can understand it. Figured this by ear and by watching them 
         play live.
         Relatively easy song once you get the hang out it.
         It's pretty much the same three shapes shifted up or down and same kind of strumming throughout.
         I would suggest muting to get it to sound like the record. Only use e, B, and G strings.
         *** The "U" represents an up strum. ***
Intro/Verse:
Lead Guitar
                Off work in the morning
                Up at the crack of dawn
                All my money worries
                Wherever I go come along
                                      U     U         REPEAT 4X
e|-----4--4--4-------4--4--4-------4--4--6--4---------------------------------|
B|-----4--4--4-------4--4--4-------6--6--6--6---------------------------------|
G|-5---5--5--5---5---5--5--5---6---6--6--6--6---------------------------------|
D|----------------------------------------------------------------------------|
A|----------------------------------------------------------------------------|
E|----------------------------------------------------------------------------|

Pre-Chorus:
            Worry's a bully
            That just won’t let me be
            Trying to keep me busy
            Tussling and struggling

e|-----4--4--4-------4--4--4-------8--8--8-------6--6--6---------------------|
B|-----6--6--6-------6--6--6-------9--9--9-------8--8--8---------------------|
G|-6---6--6--6---6---6--6--6---10--10-10-10---8--8--8--8---------------------|
D|---------------------------------------------------------------------------|
A|---------------------------------------------------------------------------|
E|---------------------------------------------------------------------------|

Repeat Into/Verse:
                  No home since the fire
                  Me and the ash cant settle down
                  Unsure of where I'm bound
                  So i sink another round
                  Placebo for pain
                  And there’s no one for to blame
                  I refuse to accept
                  That my work is all in vain

Repeat Pre-Chorus:
                  Worry's a bully
                  That just won’t let me be
                  Trying to keep me busy
                  Tussling and struggling
Chorus: REPEAT (guitar and lyrics)2X 
       Still always remembering
       When the going gets tuff
       That the labor of our love
       Will reward us soon enough
                                                              U   U
e|--4-4-4----4-4-4----6-6-6----6-6-6-----8-8-8-----6-6-6----6-6-6-6----------|
B|--4-4-4----4-4-4----8-8-8----8-8-8-----9-9-9-----8-8-8----6-6-6-6----------|
G|5-5-5-5--5-5-5-5--8-8-8-8--8-8-8-8--10-101010--8-8-8-8--4-4-4-6-4----------|
D|---------------------------------------------------------------------------|
A|---------------------------------------------------------------------------|
E|---------------------------------------------------------------------------|

The song pretty much repeats from there I'm sure you can figure it out. I hope this helped you. \m/

************************************

| /   slide up
| \   slide down
| h   hammer-on
| p   pull-off
| ~   vibrato
| +   harmonic
| x   Mute note
| b   Bend
| pb  Pre-bend
| br  Bend release
| pbr Pre-bend release
| brb Bend release bend

************************************

            
            
Suggest correction
Creating personal tab
Creating personal tab
You can edit any tab online and save it as your Personal.

You can edit, replace or remove any tab part or add personal notes – all changes will be seen only by you.

Personal tabs can be accessed anytime from any device, even offline.
Learn more »
comments
print report bad tab
guest
You may want to rate the tab now too:
select rating
Wanna post a correction for this tab? Suggest correction