Oops, an error
Loading. Please wait.

American Woman intro tab

version 3
version 3

Intro

Whole song

48,547 views 39 this week
3 commentsread comments
1 2 3 4 5
x 20
add to favorites
×
Save as Personal and add changes to this tab that will be seen only by you. Learn more ›
×
You can save this tab as Personal to edit and correct it or add notes. All changes will be seen only by you. Learn more »
launch autoscroll
font size
0
reset
how to read this tab
guitar tuner
backing track
0:00
0:00
edit
Autoscroll
slow
fast
+/-
esc
set tempo
stop
Author
this is how i play it and it sounds right. if it doesnt for you then your playing it wrong.

Riff 1
E----------------------------------------------|
B----------------------------------------------|
G----------------------------------------------|
D-9-7-9-9-9-9-9-7-9-9-9-----9-7-9-9-9-9-9-7-9--|   play this 2x
A-9-5-7-7-7-7-7-5-7-7-7-----9-5-7-7-7-7-7-5-7--|
E----------------------------------------------|

Riff 2
E---------------------------------------15----------|
B------------------------15----------------12-14-15-|
G--9-11-13v---13-14-16v----------12-13--------------|
D----------------------------12---------------------| play this while another
A---------------------------------------------------| guitar plays Riff 1
E---------------------------------------------------|

Then play Riff 1 again

            
            
Suggest correction
Creating personal tab
Creating personal tab
You can edit any tab online and save it as your Personal.

You can edit, replace or remove any tab part or add personal notes – all changes will be seen only by you.

Personal tabs can be accessed anytime from any device, even offline.
Learn more »
comments
print report bad tab
3 comments total.
+2 reply
R8:31b 1,731 Oct 25, 2008 07:47 PM

the first bar would be completely right if u did this:
E----------------------------------------------|
B----------------------------------------------|
G----------------------------------------------|
D-9-7-9-9-9-9-9-7-9-9-9-----9-7-9-9-9-9-9-7-9--| play this 2x
A-9-5-7-7-7-7-7-5-7-7-7-----9-5-7-7-7-7-7-5-7--|
E-7-------------------------7------------------|
but thats all it needs no biggie, sounds good either way though.

0 reply
fast-lagardo 10 Nov 22, 2008 02:10 PM

the way I play it is


e|----------------------------|
B|----------------------------|
G|-4--7--9-9-9-9-9-7-9-9-9-9--|
D|-4--7--9-9-9-9-9-7-9-9-9-9--|
A|-2--5--7-7-7-7-7-7-7-7-7-7--|
E|----------------------------|


just bar it, it sounds perfect if you play it to speed.

0 reply
80smetalfreke 735 Apr 20, 2009 02:09 PM

hey great tab dude love it you got the other solo?

guest
You may want to rate the tab now too:
select rating
Wanna post a correction for this tab? Suggest correction