Oops, an error
Loading. Please wait.

Share The Land tab

274 views 3 this week
no commentswrite comment
1 2 3 4 5
3 more votes to show rating
add to favorites
×
Save as Personal and add changes to this tab that will be seen only by you. Learn more ›
×
You can save this tab as Personal to edit and correct it or add notes. All changes will be seen only by you. Learn more »
launch autoscroll
font size
0
reset
how to read this tab
guitar tuner
edit
Autoscroll
slow
fast
+/-
esc
set tempo
stop
Author
Difficulty
Lead and rhythm parts for intro, verses, choruses, bridge, solo, and outro


[Intro]

        Guitar 1
e|--17b19~---17b19r17--14-----|---------|--17b19~--17b19--19b21r19-|----------|
B|-------------------------15-|-15b17~--|--------------------------|-15b17~---|
G|----------------------------|---------|--------------------------|----------|
D|----------------------------|---------|--------------------------|----------|
A|----------------------------|---------|--------------------------|----------|
E|----------------------------|---------|--------------------------|----------|
 |      Guitar 2                                                              |
e|----------------------------|---------|--------------------------|----------|
B|--7~------------------------|-9~------|--7~------7------10-------|-9--------|
G|--9b11~---------------------|-11b13~--|--9b11~---9b11~--12b14----|-11b13~---|
D|----------------------------|---------|--------------------------|----------|
A|----------------------------|---------|--------------------------|----------|
E|----------------------------|---------|--------------------------|----------|


[Verse 1]

Bm
 Have you been around?
E 
 Have you done your share of comin' down,
G            A                    D    F#
 On different things that people do?

Bm
 Have you been aware? 
E 
 You got brothers and sisters who care
G                            A                   D      F# 
 About what's gonna happen to you in a year from now


[Chorus 1]

 B                      F#
 Maybe I'll be there to shake your hand,
 E                      B  
 Maybe I'll be there to share the land
                 F#               E              B
 That they'll be givin' away when we all live together.
     E                B
 I'm talkin' 'bout together now.

 B                      F#
 Maybe I'll be there to shake your hand,
 E                      B
 Maybe I'll be there to share the land
                 F#               E              B                                
 That they'll be givin' away when we all live together.
     E                B
 I'm talkin' 'bout together now.


[Bridge]

        Guitar 1
e|--17b19~---17b19r17--14-----|---------|--17b19~--17b19--19b21r19-|---------|
B|-------------------------15-|-15b17~--|--------------------------|-15b17~--|
G|----------------------------|---------|--------------------------|---------|
D|----------------------------|---------|--------------------------|---------|
A|----------------------------|---------|--------------------------|---------|
E|----------------------------|---------|--------------------------|---------|
 |      Guitar 2                                                             |
e|----------------------------|---------|--------------------------|---------|
B|--7~------------------------|-9~------|--7~------7------10-------|-9-------|
G|--9b11~---------------------|-11b13~--|--9b11~---9b11~--12b14----|-11b13~--|
D|----------------------------|---------|--------------------------|---------|
A|----------------------------|---------|--------------------------|---------|
E|----------------------------|---------|--------------------------|---------|


[Verse 2]

Bm
 Did you pay your dues?
E
 Did you read the news,
G                            A              D      F#
 This morning when the paper landed in your yard?

Bm 
 Do you know their names?
E
 Can you play their games, 
G                         A                     D      F#       
 Without losing track and coming down a bit too hard?


[Chorus 2]

 B                      F#
 Maybe I'll be there to shake your hand,
 E                      B  
 Maybe I'll be there to share the land
                 F#               E              B
 That they'll be givin' away when we all live together.
     E                B
 I'm talkin' 'bout together now.

 B                      F#
 Maybe I'll be there to shake your hand,
 E                      B
 Maybe I'll be there to share the land
                 F#               E              B                                
 That they'll be givin' away when we all live together.
     E                B
 I'm talkin' 'bout together now.


[Solo]

      Guitar 1
e|-17b19-17b19~---17b19r17---19-17-------|-------------------------------|
B|---------------------------------19-18-|-17~------------------15-17b19-|
G|---------------------------------------|----------------15/17----------|
D|---------------------------------------|-------------------------------|
A|---------------------------------------|-------------------------------|
E|---------------------------------------|-------------------------------|
 |    Guitar 2                                                           |
e|---------------------------------------|-------------------------------|
B|-7~-----------------------10-----------|-9~----------------------------|
G|-9b11~--------------------12b14--------|-11b13~------------------------|
D|---------------------------------------|-------------------------------|
A|---------------------------------------|-------------------------------|
E|---------------------------------------|-------------------------------|


    Guitar 1    
e|------------------------------------------|-------------------------19b21~--19b21-19-17|
B|-15~---------15-17b19-17~-----17b19-17-15-|-17b19~------17b19-17-15--------------------|
G|-------15/17------------------------------|--------------------------------------------|
D|------------------------------------------|--------------------------------------------|
A|------------------------------------------|--------------------------------------------|
E|------------------------------------------|--------------------------------------------|
 |  Guitar 2                                                                             |        
e|------------------------------------------|--------------------------------------------|
B|-8~-------------------10~-----------------|-10~----------------------14~---------------|
G|-10b12~---------------12b14~--------------|-12b14~-------------------16b18~------------|
D|------------------------------------------|--------------------------------------------|
A|------------------------------------------|--------------------------------------------|
E|------------------------------------------|--------------------------------------------|


    Guitar 1
e|-19b21-19~--17-19-17-19-17-17b19~---19-17------|--------------------------------------------|
B|------------------------------------------19-18|-17~-----------15-17-17-17b19-17-15~-----15-|
G|-----------------------------------------------|---------15/17-------------------------17---|
D|-----------------------------------------------|--------------------------------------------|
A|-----------------------------------------------|--------------------------------------------|
E|-----------------------------------------------|--------------------------------------------|
 |  Guitar 2                                                                                  |
e|-----------------------------------------------|--------------------------------------------|
B|-7~--------------------------------------------|-9~-----------------------------------------|
G|-9b11~-----------------------------------------|-11b13~-------------------------------------|
D|-----------------------------------------------|--------------------------------------------|
A|-----------------------------------------------|--------------------------------------------|
E|-----------------------------------------------|--------------------------------------------|


    Guitar 1
e|-----------------------------------------------|-------------------------19b21-21pb~---19b21-21pb~|
B|-17b19-15-15~------17b19--17-------17b19-17-15-|-17b19~------17b19-17-15--------------------------|
G|-----------------------------------------------|--------------------------------------------------|
D|-----------------------------------------------|--------------------------------------------------|
A|-----------------------------------------------|--------------------------------------------------|
E|-----------------------------------------------|--------------------------------------------------|
 |  Guitar 2                                                                                        |
e|-----------------------------------------------|--------------------------------------------------|
B|-8~-----------------------10~------------------|-10~---------------------14~----------------------|
G|-10b12~-------------------12b14~---------------|-12b14~------------------16b18~-------------------|
D|-----------------------------------------------|--------------------------------------------------|
A|-----------------------------------------------|--------------------------------------------------|
E|-----------------------------------------------|--------------------------------------------------|


[Chorus 3]

 B                      F#
 Maybe I'll be there to shake your hand,
 E                      B  
 Maybe I'll be there to share the land
                 F#               E              B
 That they'll be givin' away when we all live together.
     E                B
 I'm talkin' 'bout together now.

 B                      F#
 Maybe I'll be there to shake your hand,
 E                      B
 Maybe I'll be there to share the land
                 F#               E              B                                
 That they'll be givin' away when we all live together.
     E       B
 Together, together.


 [Outro]

  N.C.
 (Shake your hand, share the land)
                  You know I'll be standing by to help you if you worry
  N.C. 
 (Shake your hand, share the land)
            No more sadness, no more sorrow, and no more bad times
  N.C.
 (Shake your hand, share the land)
            Every day come a sunshine, every day everybody laughin'
  


 B           F#    E         B
(Shake your  hand, share the land)
     Walkin' together by the river, walkin' together and laughin'       

 B          F#    E         B
(Shake your hand, share the land)
      Everybody singin' together, everybody singin' and laughin'

 B          F#    E         B
(Shake your hand, share the land)
      Good times, good times, everybody walkin' by the river now
 
 B          F#    E         B
(Shake your hand, share the land)
      Walkin', singin', and talkin', smilin', laughin', diggin' each other 

 B          F#    E         B
(Shake your hand, share the land)
      Everybody happy together, I'll be there, don't worry, if you need of me

 B          F#    E         B
(Shake your hand, share the land)
      Call on baby, call on me, call my name, I'll be runnin' to help you

 B          F#    E         B
(Shake your hand, share the land)
      Everybody walkin' by the river now, everyday everybody laughin'

 B          F#    E         B
(Shake your hand, share the land)
      Everybody singin' and talkin', smilin' laughin', diggin' each other




************************************

|(n)   Ghost note
| b    Bend
| br   Bend release
| pb   Pre-bend
| /    Slide up
| \    Slide down
| ~    Vibrato
| N.C. No chord played

************************************



 

            
            
Suggest correction
Creating personal tab
Creating personal tab
You can edit any tab online and save it as your Personal.

You can edit, replace or remove any tab part or add personal notes – all changes will be seen only by you.

Personal tabs can be accessed anytime from any device, even offline.
Learn more »
Give kudos to tab author, rate the tab!
1 2 3 4 5
comments
print report bad tab
guest
You may want to rate the tab now too:
select rating
Wanna post a correction for this tab? Suggest correction